  0
SECTION
  2
HEADER
  9
$ACADVER
  1
AC1009
  9
$INSBASE
 10
0.0
 20
0.0
 30
0.0
  9
$EXTMIN
 10
3213.7878726786221
 20
2327.4610485963058
 30
0.0
  9
$EXTMAX
 10
23251.435976267101
 20
19205.835694042878
 30
0.0
  9
$LIMMIN
 10
0.0
 20
0.0
  9
$LIMMAX
 10
420.0
 20
297.0
  9
$ORTHOMODE
 70
     0
  9
$REGENMODE
 70
     1
  9
$FILLMODE
 70
     1
  9
$QTEXTMODE
 70
     0
  9
$MIRRTEXT
 70
     0
  9
$DRAGMODE
 70
     2
  9
$LTSCALE
 40
1.0
  9
$OSMODE
 70
    39
  9
$ATTMODE
 70
     1
  9
$TEXTSIZE
 40
2.5
  9
$TRACEWID
 40
1.0
  9
$TEXTSTYLE
  7
STANDARD
  9
$CLAYER
  8
0
  9
$CELTYPE
  6
BYLAYER
  9
$CECOLOR
 62
   256
  9
$DIMSCALE
 40
1.0
  9
$DIMASZ
 40
2.5
  9
$DIMEXO
 40
0.625
  9
$DIMDLI
 40
3.75
  9
$DIMRND
 40
0.0
  9
$DIMDLE
 40
0.0
  9
$DIMEXE
 40
1.25
  9
$DIMTP
 40
0.0
  9
$DIMTM
 40
0.0
  9
$DIMTXT
 40
2.5
  9
$DIMCEN
 40
2.5
  9
$DIMTSZ
 40
0.0
  9
$DIMTOL
 70
     0
  9
$DIMLIM
 70
     0
  9
$DIMTIH
 70
     0
  9
$DIMTOH
 70
     0
  9
$DIMSE1
 70
     0
  9
$DIMSE2
 70
     0
  9
$DIMTAD
 70
     1
  9
$DIMZIN
 70
     8
  9
$DIMBLK
  1

  9
$DIMASO
 70
     1
  9
$DIMSHO
 70
     1
  9
$DIMPOST
  1

  9
$DIMAPOST
  1

  9
$DIMALT
 70
     0
  9
$DIMALTD
 70
     3
  9
$DIMALTF
 40
0.03937007874016
  9
$DIMLFAC
 40
1.0
  9
$DIMTOFL
 70
     1
  9
$DIMTVP
 40
0.0
  9
$DIMTIX
 70
     0
  9
$DIMSOXD
 70
     0
  9
$DIMSAH
 70
     0
  9
$DIMBLK1
  1

  9
$DIMBLK2
  1

  9
$DIMSTYLE
  2
ISO-25
  9
$DIMCLRD
 70
     0
  9
$DIMCLRE
 70
     0
  9
$DIMCLRT
 70
     0
  9
$DIMTFAC
 40
1.0
  9
$DIMGAP
 40
0.625
  9
$LUNITS
 70
     2
  9
$LUPREC
 70
     4
  9
$SKETCHINC
 40
1.0
  9
$FILLETRAD
 40
0.0
  9
$AUNITS
 70
     0
  9
$AUPREC
 70
     0
  9
$MENU
  1
.
  9
$ELEVATION
 40
0.0
  9
$PELEVATION
 40
0.0
  9
$THICKNESS
 40
0.0
  9
$LIMCHECK
 70
     0
  9
$BLIPMODE
 70
     0
  9
$CHAMFERA
 40
0.0
  9
$CHAMFERB
 40
0.0
  9
$SKPOLY
 70
     0
  9
$TDCREATE
 40
2457669.6161368522
  9
$TDUPDATE
 40
2458088.7071381938
  9
$TDINDWG
 40
0.3990198032
  9
$TDUSRTIMER
 40
0.3990197917
  9
$USRTIMER
 70
     1
  9
$ANGBASE
 50
0.0
  9
$ANGDIR
 70
     0
  9
$PDMODE
 70
     0
  9
$PDSIZE
 40
0.0
  9
$PLINEWID
 40
0.0
  9
$COORDS
 70
     1
  9
$SPLFRAME
 70
     0
  9
$SPLINETYPE
 70
     6
  9
$SPLINESEGS
 70
     8
  9
$ATTDIA
 70
     1
  9
$ATTREQ
 70
     1
  9
$HANDLING
 70
     1
  9
$HANDSEED
  5
2CD9
  9
$SURFTAB1
 70
     6
  9
$SURFTAB2
 70
     6
  9
$SURFTYPE
 70
     6
  9
$SURFU
 70
     6
  9
$SURFV
 70
     6
  9
$UCSNAME
  2

  9
$UCSORG
 10
0.0
 20
0.0
 30
0.0
  9
$UCSXDIR
 10
1.0
 20
0.0
 30
0.0
  9
$UCSYDIR
 10
0.0
 20
1.0
 30
0.0
  9
$PUCSNAME
  2

  9
$PUCSORG
 10
0.0
 20
0.0
 30
0.0
  9
$PUCSXDIR
 10
1.0
 20
0.0
 30
0.0
  9
$PUCSYDIR
 10
0.0
 20
1.0
 30
0.0
  9
$USERI1
 70
     0
  9
$USERI2
 70
     0
  9
$USERI3
 70
     0
  9
$USERI4
 70
     0
  9
$USERI5
 70
     0
  9
$USERR1
 40
0.0
  9
$USERR2
 40
0.0
  9
$USERR3
 40
0.0
  9
$USERR4
 40
0.0
  9
$USERR5
 40
0.0
  9
$WORLDVIEW
 70
     1
  9
$SHADEDGE
 70
     3
  9
$SHADEDIF
 70
    70
  9
$TILEMODE
 70
     1
  9
$MAXACTVP
 70
    64
  9
$PLIMCHECK
 70
     0
  9
$PEXTMIN
 10
0.0
 20
0.0
 30
0.0
  9
$PEXTMAX
 10
0.0
 20
0.0
 30
0.0
  9
$PLIMMIN
 10
0.0
 20
0.0
  9
$PLIMMAX
 10
12.0
 20
9.0
  9
$UNITMODE
 70
     0
  9
$VISRETAIN
 70
     1
  9
$PLINEGEN
 70
     0
  9
$PSLTSCALE
 70
     1
  0
ENDSEC
  0
SECTION
  2
TABLES
  0
TABLE
  2
VPORT
 70
     1
  0
VPORT
  2
*ACTIVE
 70
     0
 10
0.0
 20
0.0
 11
1.0
 21
1.0
 12
11365.82184187327
 22
12719.09683102732
 13
0.0
 23
0.0
 14
10.0
 24
10.0
 15
10.0
 25
10.0
 16
0.0
 26
0.0
 36
1.0
 17
0.0
 27
0.0
 37
0.0
 40
6742.7129991361853
 41
2.005224660397074
 42
50.0
 43
0.0
 44
0.0
 50
0.0
 51
0.0
 71
     0
 72
  1000
 73
     1
 74
     3
 75
     1
 76
     1
 77
     0
 78
     0
  0
ENDTAB
  0
TABLE
  2
LTYPE
 70
     1
  0
LTYPE
  2
CONTINUOUS
 70
     0
  3
Solid line
 72
    65
 73
     0
 40
0.0
  0
ENDTAB
  0
TABLE
  2
LAYER
 70
     4
  0
LAYER
  2
0
 70
     0
 62
     7
  6
CONTINUOUS
  0
LAYER
  2
DEFPOINTS
 70
     0
 62
     7
  6
CONTINUOUS
  0
LAYER
  2
LAYER_1
 70
     0
 62
     2
  6
CONTINUOUS
  0
LAYER
  2
LAYER_2
 70
     0
 62
     3
  6
CONTINUOUS
  0
ENDTAB
  0
TABLE
  2
STYLE
 70
     2
  0
STYLE
  2
STANDARD
 70
     0
 40
0.0
 41
1.0
 50
0.0
 71
     0
 42
2.5
  3
txt
  4

  0
STYLE
  2
ANNOTATIVE
 70
     0
 40
0.0
 41
1.0
 50
0.0
 71
     0
 42
2.5
  3
txt
  4

  0
ENDTAB
  0
TABLE
  2
VIEW
 70
     0
  0
ENDTAB
  0
TABLE
  2
UCS
 70
     0
  0
ENDTAB
  0
TABLE
  2
APPID
 70
    11
  0
APPID
  2
ACAD
 70
     0
  0
APPID
  2
ACAD_PSEXT
 70
     0
  0
APPID
  2
ACADANNOPO
 70
     0
  0
APPID
  2
ACADANNOTATIVE
 70
     0
  0
APPID
  2
ACAD_DSTYLE_DIMJAG
 70
     0
  0
APPID
  2
ACAD_DSTYLE_DIMTALN
 70
     0
  0
APPID
  2
ACAD_MLEADERVER
 70
     0
  0
APPID
  2
ACAD_NAV_VCDISPLAY
 70
     0
  0
APPID
  2
ACAD_EXEMPT_FROM_CAD_STANDARDS
 70
     0
  0
APPID
  2
GRADIENTCOLOR1ACI
 70
     0
  0
APPID
  2
GRADIENTCOLOR2ACI
 70
     0
  0
ENDTAB
  0
TABLE
  2
DIMSTYLE
 70
     3
  0
DIMSTYLE
  2
STANDARD
 70
     0
  3

  4

  5

  6

  7

 40
1.0
 41
0.18
 42
0.0625
 43
0.38
 44
0.18
 45
0.0
 46
0.0
 47
0.0
 48
0.0
140
0.18
141
0.09
142
0.0
143
25.399999999999999
144
1.0
145
0.0
146
1.0
147
0.09
 71
     0
 72
     0
 73
     1
 74
     1
 75
     0
 76
     0
 77
     0
 78
     0
170
     0
171
     2
172
     0
173
     0
174
     0
175
     0
176
     0
177
     0
178
     0
  0
DIMSTYLE
  2
ANNOTATIVE
 70
     0
  3

  4

  5

  6

  7

 40
0.0
 41
2.5
 42
0.625
 43
3.75
 44
1.25
 45
0.0
 46
0.0
 47
0.0
 48
0.0
140
2.5
141
2.5
142
0.0
143
0.03937007874016
144
1.0
145
0.0
146
1.0
147
0.625
 71
     0
 72
     0
 73
     0
 74
     0
 75
     0
 76
     0
 77
     1
 78
     8
170
     0
171
     3
172
     1
173
     0
174
     0
175
     0
176
     0
177
     0
178
     0
  0
DIMSTYLE
  2
ISO-25
 70
     0
  3

  4

  5

  6

  7

 40
1.0
 41
2.5
 42
0.625
 43
3.75
 44
1.25
 45
0.0
 46
0.0
 47
0.0
 48
0.0
140
2.5
141
2.5
142
0.0
143
0.03937007874016
144
1.0
145
0.0
146
1.0
147
0.625
 71
     0
 72
     0
 73
     0
 74
     0
 75
     0
 76
     0
 77
     1
 78
     8
170
     0
171
     3
172
     1
173
     0
174
     0
175
     0
176
     0
177
     0
178
     0
  0
ENDTAB
  0
ENDSEC
  0
SECTION
  2
BLOCKS
  0
BLOCK
  8
0
  2
$MODEL_SPACE
 70
     0
 10
0.0
 20
0.0
 30
0.0
  3
$MODEL_SPACE
  1

  0
ENDBLK
  5
21
  8
0
  0
BLOCK
 67
     1
  8
0
  2
$PAPER_SPACE
 70
     0
 10
0.0
 20
0.0
 30
0.0
  3
$PAPER_SPACE
  1

  0
ENDBLK
  5
D5
 67
     1
  8
0
  0
BLOCK
  8
0
  2
PILLAR_DEVICE_140320_VER
 70
     0
 10
0.0
 20
0.0
 30
0.0
  3
PILLAR_DEVICE_140320_VER
  1

  0
POLYLINE
  5
50E
  8
LAYER_1
  6
CONTINUOUS
 66
     1
 10
0.0
 20
0.0
 30
0.0
 70
     1
  0
VERTEX
  5
23E3
  8
LAYER_1
  6
CONTINUOUS
 10
0.0
 20
28550.0
 30
0.0
  0
VERTEX
  5
23E4
  8
LAYER_1
  6
CONTINUOUS
 10
250.0
 20
28550.0
 30
0.0
  0
VERTEX
  5
23E5
  8
LAYER_1
  6
CONTINUOUS
 10
250.0
 20
28300.0
 30
0.0
  0
VERTEX
  5
23E6
  8
LAYER_1
  6
CONTINUOUS
 10
0.0
 20
28300.0
 30
0.0
  0
VERTEX
  5
23E7
  8
LAYER_1
  6
CONTINUOUS
 10
0.0
 20
28550.0
 30
0.0
  0
SEQEND
  5
23E8
  8
LAYER_1
  6
CONTINUOUS
  0
POLYLINE
  5
50F
  8
LAYER_1
  6
CONTINUOUS
 66
     1
 10
0.0
 20
0.0
 30
0.0
 70
     1
  0
VERTEX
  5
23E9
  8
LAYER_1
  6
CONTINUOUS
 10
500.0
 20
28550.0
 30
0.0
  0
VERTEX
  5
23EA
  8
LAYER_1
  6
CONTINUOUS
 10
750.0
 20
28550.0
 30
0.0
  0
VERTEX
  5
23EB
  8
LAYER_1
  6
CONTINUOUS
 10
750.0
 20
28300.0
 30
0.0
  0
VERTEX
  5
23EC
  8
LAYER_1
  6
CONTINUOUS
 10
500.0
 20
28300.0
 30
0.0
  0
VERTEX
  5
23ED
  8
LAYER_1
  6
CONTINUOUS
 10
500.0
 20
28550.0
 30
0.0
  0
SEQEND
  5
23EE
  8
LAYER_1
  6
CONTINUOUS
  0
POLYLINE
  5
510
  8
LAYER_1
  6
CONTINUOUS
 66
     1
 10
0.0
 20
0.0
 30
0.0
 70
     1
  0
VERTEX
  5
23EF
  8
LAYER_1
  6
CONTINUOUS
 10
0.0
 20
28050.0
 30
0.0
  0
VERTEX
  5
23F0
  8
LAYER_1
  6
CONTINUOUS
 10
250.0
 20
28050.0
 30
0.0
  0
VERTEX
  5
23F1
  8
LAYER_1
  6
CONTINUOUS
 10
250.0
 20
27800.0
 30
0.0
  0
VERTEX
  5
23F2
  8
LAYER_1
  6
CONTINUOUS
 10
0.0
 20
27800.0
 30
0.0
  0
VERTEX
  5
23F3
  8
LAYER_1
  6
CONTINUOUS
 10
0.0
 20
28050.0
 30
0.0
  0
SEQEND
  5
23F4
  8
LAYER_1
  6
CONTINUOUS
  0
POLYLINE
  5
511
  8
LAYER_1
  6
CONTINUOUS
 66
     1
 10
0.0
 20
0.0
 30
0.0
 70
     1
  0
VERTEX
  5
23F5
  8
LAYER_1
  6
CONTINUOUS
 10
500.0
 20
28050.0
 30
0.0
  0
VERTEX
  5
23F6
  8
LAYER_1
  6
CONTINUOUS
 10
750.0
 20
28050.0
 30
0.0
  0
VERTEX
  5
23F7
  8
LAYER_1
  6
CONTINUOUS
 10
750.0
 20
27800.0
 30
0.0
  0
VERTEX
  5
23F8
  8
LAYER_1
  6
CONTINUOUS
 10
500.0
 20
27800.0
 30
0.0
  0
VERTEX
  5
23F9
  8
LAYER_1
  6
CONTINUOUS
 10
500.0
 20
28050.0
 30
0.0
  0
SEQEND
  5
23FA
  8
LAYER_1
  6
CONTINUOUS
  0
POLYLINE
  5
512
  8
LAYER_1
  6
CONTINUOUS
 66
     1
 10
0.0
 20
0.0
 30
0.0
 70
     1
  0
VERTEX
  5
23FB
  8
LAYER_1
  6
CONTINUOUS
 10
750.0
 20
28300.0
 30
0.0
  0
VERTEX
  5
23FC
  8
LAYER_1
  6
CONTINUOUS
 10
1500.0
 20
28300.0
 30
0.0
  0
VERTEX
  5
23FD
  8
LAYER_1
  6
CONTINUOUS
 10
1500.0
 20
28050.0
 30
0.0
  0
VERTEX
  5
23FE
  8
LAYER_1
  6
CONTINUOUS
 10
750.0
 20
28050.0
 30
0.0
  0
VERTEX
  5
23FF
  8
LAYER_1
  6
CONTINUOUS
 10
750.0
 20
28300.0
 30
0.0
  0
SEQEND
  5
2400
  8
LAYER_1
  6
CONTINUOUS
  0
POLYLINE
  5
513
  8
LAYER_1
  6
CONTINUOUS
 66
     1
 10
0.0
 20
0.0
 30
0.0
 70
     1
  0
VERTEX
  5
2401
  8
LAYER_1
  6
CONTINUOUS
 10
1000.0
 20
28550.0
 30
0.0
  0
VERTEX
  5
2402
  8
LAYER_1
  6
CONTINUOUS
 10
1250.0
 20
28550.0
 30
0.0
  0
VERTEX
  5
2403
  8
LAYER_1
  6
CONTINUOUS
 10
1250.0
 20
27800.0
 30
0.0
  0
VERTEX
  5
2404
  8
LAYER_1
  6
CONTINUOUS
 10
1000.0
 20
27800.0
 30
0.0
  0
VERTEX
  5
2405
  8
LAYER_1
  6
CONTINUOUS
 10
1000.0
 20
28550.0
 30
0.0
  0
SEQEND
  5
2406
  8
LAYER_1
  6
CONTINUOUS
  0
POLYLINE
  5
514
  8
LAYER_1
  6
CONTINUOUS
 66
     1
 10
0.0
 20
0.0
 30
0.0
 70
     1
  0
VERTEX
  5
2407
  8
LAYER_1
  6
CONTINUOUS
 10
0.0
 20
-2500.0
 30
0.0
  0
VERTEX
  5
2408
  8
LAYER_1
  6
CONTINUOUS
 10
700.0
 20
-2500.0
 30
0.0
  0
VERTEX
  5
2409
  8
LAYER_1
  6
CONTINUOUS
 10
700.0
 20
2500.0
 30
0.0
  0
VERTEX
  5
240A
  8
LAYER_1
  6
CONTINUOUS
 10
0.0
 20
2500.0
 30
0.0
  0
VERTEX
  5
240B
  8
LAYER_1
  6
CONTINUOUS
 10
0.0
 20
-2500.0
 30
0.0
  0
SEQEND
  5
240C
  8
LAYER_1
  6
CONTINUOUS
  0
POLYLINE
  5
515
  8
LAYER_1
  6
CONTINUOUS
 66
     1
 10
0.0
 20
0.0
 30
0.0
 70
     1
  0
VERTEX
  5
240D
  8
LAYER_1
  6
CONTINUOUS
 10
699.69899999999996
 20
-750.0
 30
0.0
  0
VERTEX
  5
240E
  8
LAYER_1
  6
CONTINUOUS
 10
656.39800000000002
 20
-775.0
 30
0.0
  0
VERTEX
  5
240F
  8
LAYER_1
  6
CONTINUOUS
 10
656.39800000000002
 20
-825.0
 30
0.0
  0
VERTEX
  5
2410
  8
LAYER_1
  6
CONTINUOUS
 10
699.69899999999996
 20
-850.0
 30
0.0
  0
VERTEX
  5
2411
  8
LAYER_1
  6
CONTINUOUS
 10
743.0
 20
-825.0
 30
0.0
  0
VERTEX
  5
2412
  8
LAYER_1
  6
CONTINUOUS
 10
743.0
 20
-775.0
 30
0.0
  0
VERTEX
  5
2413
  8
LAYER_1
  6
CONTINUOUS
 10
699.69899999999996
 20
-750.0
 30
0.0
  0
SEQEND
  5
2414
  8
LAYER_1
  6
CONTINUOUS
  0
POLYLINE
  5
516
  8
LAYER_1
  6
CONTINUOUS
 66
     1
 10
0.0
 20
0.0
 30
0.0
 70
     1
  0
VERTEX
  5
2415
  8
LAYER_1
  6
CONTINUOUS
 10
699.69899999999996
 20
-550.0
 30
0.0
  0
VERTEX
  5
2416
  8
LAYER_1
  6
CONTINUOUS
 10
656.39800000000002
 20
-575.0
 30
0.0
  0
VERTEX
  5
2417
  8
LAYER_1
  6
CONTINUOUS
 10
656.39800000000002
 20
-625.0
 30
0.0
  0
VERTEX
  5
2418
  8
LAYER_1
  6
CONTINUOUS
 10
699.69899999999996
 20
-650.0
 30
0.0
  0
VERTEX
  5
2419
  8
LAYER_1
  6
CONTINUOUS
 10
743.0
 20
-625.0
 30
0.0
  0
VERTEX
  5
241A
  8
LAYER_1
  6
CONTINUOUS
 10
743.0
 20
-575.0
 30
0.0
  0
VERTEX
  5
241B
  8
LAYER_1
  6
CONTINUOUS
 10
699.69899999999996
 20
-550.0
 30
0.0
  0
SEQEND
  5
241C
  8
LAYER_1
  6
CONTINUOUS
  0
POLYLINE
  5
517
  8
LAYER_1
  6
CONTINUOUS
 66
     1
 10
0.0
 20
0.0
 30
0.0
 70
     1
  0
VERTEX
  5
241D
  8
LAYER_1
  6
CONTINUOUS
 10
699.69899999999996
 20
-350.0
 30
0.0
  0
VERTEX
  5
241E
  8
LAYER_1
  6
CONTINUOUS
 10
656.39800000000002
 20
-375.0
 30
0.0
  0
VERTEX
  5
241F
  8
LAYER_1
  6
CONTINUOUS
 10
656.39800000000002
 20
-425.0
 30
0.0
  0
VERTEX
  5
2420
  8
LAYER_1
  6
CONTINUOUS
 10
699.69899999999996
 20
-450.0
 30
0.0
  0
VERTEX
  5
2421
  8
LAYER_1
  6
CONTINUOUS
 10
743.0
 20
-425.0
 30
0.0
  0
VERTEX
  5
2422
  8
LAYER_1
  6
CONTINUOUS
 10
743.0
 20
-375.0
 30
0.0
  0
VERTEX
  5
2423
  8
LAYER_1
  6
CONTINUOUS
 10
699.69899999999996
 20
-350.0
 30
0.0
  0
SEQEND
  5
2424
  8
LAYER_1
  6
CONTINUOUS
  0
POLYLINE
  5
518
  8
LAYER_1
  6
CONTINUOUS
 66
     1
 10
0.0
 20
0.0
 30
0.0
 70
     1
  0
VERTEX
  5
2425
  8
LAYER_1
  6
CONTINUOUS
 10
699.69899999999996
 20
-150.0
 30
0.0
  0
VERTEX
  5
2426
  8
LAYER_1
  6
CONTINUOUS
 10
656.39800000000002
 20
-175.0
 30
0.0
  0
VERTEX
  5
2427
  8
LAYER_1
  6
CONTINUOUS
 10
656.39800000000002
 20
-225.0
 30
0.0
  0
VERTEX
  5
2428
  8
LAYER_1
  6
CONTINUOUS
 10
699.69899999999996
 20
-250.0
 30
0.0
  0
VERTEX
  5
2429
  8
LAYER_1
  6
CONTINUOUS
 10
743.0
 20
-225.0
 30
0.0
  0
VERTEX
  5
242A
  8
LAYER_1
  6
CONTINUOUS
 10
743.0
 20
-175.0
 30
0.0
  0
VERTEX
  5
242B
  8
LAYER_1
  6
CONTINUOUS
 10
699.69899999999996
 20
-150.0
 30
0.0
  0
SEQEND
  5
242C
  8
LAYER_1
  6
CONTINUOUS
  0
POLYLINE
  5
519
  8
LAYER_1
  6
CONTINUOUS
 66
     1
 10
0.0
 20
0.0
 30
0.0
 70
     1
  0
VERTEX
  5
242D
  8
LAYER_1
  6
CONTINUOUS
 10
699.69899999999996
 20
50.0
 30
0.0
  0
VERTEX
  5
242E
  8
LAYER_1
  6
CONTINUOUS
 10
656.39800000000002
 20
25.0
 30
0.0
  0
VERTEX
  5
242F
  8
LAYER_1
  6
CONTINUOUS
 10
656.39800000000002
 20
-25.0
 30
0.0
  0
VERTEX
  5
2430
  8
LAYER_1
  6
CONTINUOUS
 10
699.69899999999996
 20
-50.0
 30
0.0
  0
VERTEX
  5
2431
  8
LAYER_1
  6
CONTINUOUS
 10
743.0
 20
-25.0
 30
0.0
  0
VERTEX
  5
2432
  8
LAYER_1
  6
CONTINUOUS
 10
743.0
 20
25.0
 30
0.0
  0
VERTEX
  5
2433
  8
LAYER_1
  6
CONTINUOUS
 10
699.69899999999996
 20
50.0
 30
0.0
  0
SEQEND
  5
2434
  8
LAYER_1
  6
CONTINUOUS
  0
POLYLINE
  5
51A
  8
LAYER_1
  6
CONTINUOUS
 66
     1
 10
0.0
 20
0.0
 30
0.0
 70
     1
  0
VERTEX
  5
2435
  8
LAYER_1
  6
CONTINUOUS
 10
699.69899999999996
 20
250.0
 30
0.0
  0
VERTEX
  5
2436
  8
LAYER_1
  6
CONTINUOUS
 10
656.39800000000002
 20
225.0
 30
0.0
  0
VERTEX
  5
2437
  8
LAYER_1
  6
CONTINUOUS
 10
656.39800000000002
 20
175.0
 30
0.0
  0
VERTEX
  5
2438
  8
LAYER_1
  6
CONTINUOUS
 10
699.69899999999996
 20
150.0
 30
0.0
  0
VERTEX
  5
2439
  8
LAYER_1
  6
CONTINUOUS
 10
743.0
 20
175.0
 30
0.0
  0
VERTEX
  5
243A
  8
LAYER_1
  6
CONTINUOUS
 10
743.0
 20
225.0
 30
0.0
  0
VERTEX
  5
243B
  8
LAYER_1
  6
CONTINUOUS
 10
699.69899999999996
 20
250.0
 30
0.0
  0
SEQEND
  5
243C
  8
LAYER_1
  6
CONTINUOUS
  0
POLYLINE
  5
51B
  8
LAYER_1
  6
CONTINUOUS
 66
     1
 10
0.0
 20
0.0
 30
0.0
 70
     1
  0
VERTEX
  5
243D
  8
LAYER_1
  6
CONTINUOUS
 10
699.69899999999996
 20
450.0
 30
0.0
  0
VERTEX
  5
243E
  8
LAYER_1
  6
CONTINUOUS
 10
656.39800000000002
 20
425.0
 30
0.0
  0
VERTEX
  5
243F
  8
LAYER_1
  6
CONTINUOUS
 10
656.39800000000002
 20
375.0
 30
0.0
  0
VERTEX
  5
2440
  8
LAYER_1
  6
CONTINUOUS
 10
699.69899999999996
 20
350.0
 30
0.0
  0
VERTEX
  5
2441
  8
LAYER_1
  6
CONTINUOUS
 10
743.0
 20
375.0
 30
0.0
  0
VERTEX
  5
2442
  8
LAYER_1
  6
CONTINUOUS
 10
743.0
 20
425.0
 30
0.0
  0
VERTEX
  5
2443
  8
LAYER_1
  6
CONTINUOUS
 10
699.69899999999996
 20
450.0
 30
0.0
  0
SEQEND
  5
2444
  8
LAYER_1
  6
CONTINUOUS
  0
POLYLINE
  5
51C
  8
LAYER_1
  6
CONTINUOUS
 66
     1
 10
0.0
 20
0.0
 30
0.0
 70
     1
  0
VERTEX
  5
2445
  8
LAYER_1
  6
CONTINUOUS
 10
699.69899999999996
 20
650.0
 30
0.0
  0
VERTEX
  5
2446
  8
LAYER_1
  6
CONTINUOUS
 10
656.39800000000002
 20
625.0
 30
0.0
  0
VERTEX
  5
2447
  8
LAYER_1
  6
CONTINUOUS
 10
656.39800000000002
 20
575.0
 30
0.0
  0
VERTEX
  5
2448
  8
LAYER_1
  6
CONTINUOUS
 10
699.69899999999996
 20
550.0
 30
0.0
  0
VERTEX
  5
2449
  8
LAYER_1
  6
CONTINUOUS
 10
743.0
 20
575.0
 30
0.0
  0
VERTEX
  5
244A
  8
LAYER_1
  6
CONTINUOUS
 10
743.0
 20
625.0
 30
0.0
  0
VERTEX
  5
244B
  8
LAYER_1
  6
CONTINUOUS
 10
699.69899999999996
 20
650.0
 30
0.0
  0
SEQEND
  5
244C
  8
LAYER_1
  6
CONTINUOUS
  0
POLYLINE
  5
51D
  8
LAYER_1
  6
CONTINUOUS
 66
     1
 10
0.0
 20
0.0
 30
0.0
 70
     1
  0
VERTEX
  5
244D
  8
LAYER_1
  6
CONTINUOUS
 10
699.69899999999996
 20
850.0
 30
0.0
  0
VERTEX
  5
244E
  8
LAYER_1
  6
CONTINUOUS
 10
656.39800000000002
 20
825.0
 30
0.0
  0
VERTEX
  5
244F
  8
LAYER_1
  6
CONTINUOUS
 10
656.39800000000002
 20
775.0
 30
0.0
  0
VERTEX
  5
2450
  8
LAYER_1
  6
CONTINUOUS
 10
699.69899999999996
 20
750.0
 30
0.0
  0
VERTEX
  5
2451
  8
LAYER_1
  6
CONTINUOUS
 10
743.0
 20
775.0
 30
0.0
  0
VERTEX
  5
2452
  8
LAYER_1
  6
CONTINUOUS
 10
743.0
 20
825.0
 30
0.0
  0
VERTEX
  5
2453
  8
LAYER_1
  6
CONTINUOUS
 10
699.69899999999996
 20
850.0
 30
0.0
  0
SEQEND
  5
2454
  8
LAYER_1
  6
CONTINUOUS
  0
POLYLINE
  5
51E
  8
LAYER_1
  6
CONTINUOUS
 66
     1
 10
0.0
 20
0.0
 30
0.0
 70
     1
  0
VERTEX
  5
2455
  8
LAYER_1
  6
CONTINUOUS
 10
0.699
 20
-750.0
 30
0.0
  0
VERTEX
  5
2456
  8
LAYER_1
  6
CONTINUOUS
 10
-42.601999999999997
 20
-775.0
 30
0.0
  0
VERTEX
  5
2457
  8
LAYER_1
  6
CONTINUOUS
 10
-42.601999999999997
 20
-825.0
 30
0.0
  0
VERTEX
  5
2458
  8
LAYER_1
  6
CONTINUOUS
 10
0.699
 20
-850.0
 30
0.0
  0
VERTEX
  5
2459
  8
LAYER_1
  6
CONTINUOUS
 10
44.0
 20
-825.0
 30
0.0
  0
VERTEX
  5
245A
  8
LAYER_1
  6
CONTINUOUS
 10
44.0
 20
-775.0
 30
0.0
  0
VERTEX
  5
245B
  8
LAYER_1
  6
CONTINUOUS
 10
0.699
 20
-750.0
 30
0.0
  0
SEQEND
  5
245C
  8
LAYER_1
  6
CONTINUOUS
  0
POLYLINE
  5
51F
  8
LAYER_1
  6
CONTINUOUS
 66
     1
 10
0.0
 20
0.0
 30
0.0
 70
     1
  0
VERTEX
  5
245D
  8
LAYER_1
  6
CONTINUOUS
 10
0.699
 20
-550.0
 30
0.0
  0
VERTEX
  5
245E
  8
LAYER_1
  6
CONTINUOUS
 10
-42.601999999999997
 20
-575.0
 30
0.0
  0
VERTEX
  5
245F
  8
LAYER_1
  6
CONTINUOUS
 10
-42.601999999999997
 20
-625.0
 30
0.0
  0
VERTEX
  5
2460
  8
LAYER_1
  6
CONTINUOUS
 10
0.699
 20
-650.0
 30
0.0
  0
VERTEX
  5
2461
  8
LAYER_1
  6
CONTINUOUS
 10
44.0
 20
-625.0
 30
0.0
  0
VERTEX
  5
2462
  8
LAYER_1
  6
CONTINUOUS
 10
44.0
 20
-575.0
 30
0.0
  0
VERTEX
  5
2463
  8
LAYER_1
  6
CONTINUOUS
 10
0.699
 20
-550.0
 30
0.0
  0
SEQEND
  5
2464
  8
LAYER_1
  6
CONTINUOUS
  0
POLYLINE
  5
520
  8
LAYER_1
  6
CONTINUOUS
 66
     1
 10
0.0
 20
0.0
 30
0.0
 70
     1
  0
VERTEX
  5
2465
  8
LAYER_1
  6
CONTINUOUS
 10
0.699
 20
-350.0
 30
0.0
  0
VERTEX
  5
2466
  8
LAYER_1
  6
CONTINUOUS
 10
-42.601999999999997
 20
-375.0
 30
0.0
  0
VERTEX
  5
2467
  8
LAYER_1
  6
CONTINUOUS
 10
-42.601999999999997
 20
-425.0
 30
0.0
  0
VERTEX
  5
2468
  8
LAYER_1
  6
CONTINUOUS
 10
0.699
 20
-450.0
 30
0.0
  0
VERTEX
  5
2469
  8
LAYER_1
  6
CONTINUOUS
 10
44.0
 20
-425.0
 30
0.0
  0
VERTEX
  5
246A
  8
LAYER_1
  6
CONTINUOUS
 10
44.0
 20
-375.0
 30
0.0
  0
VERTEX
  5
246B
  8
LAYER_1
  6
CONTINUOUS
 10
0.699
 20
-350.0
 30
0.0
  0
SEQEND
  5
246C
  8
LAYER_1
  6
CONTINUOUS
  0
POLYLINE
  5
521
  8
LAYER_1
  6
CONTINUOUS
 66
     1
 10
0.0
 20
0.0
 30
0.0
 70
     1
  0
VERTEX
  5
246D
  8
LAYER_1
  6
CONTINUOUS
 10
0.699
 20
-150.0
 30
0.0
  0
VERTEX
  5
246E
  8
LAYER_1
  6
CONTINUOUS
 10
-42.601999999999997
 20
-175.0
 30
0.0
  0
VERTEX
  5
246F
  8
LAYER_1
  6
CONTINUOUS
 10
-42.601999999999997
 20
-225.0
 30
0.0
  0
VERTEX
  5
2470
  8
LAYER_1
  6
CONTINUOUS
 10
0.699
 20
-250.0
 30
0.0
  0
VERTEX
  5
2471
  8
LAYER_1
  6
CONTINUOUS
 10
44.0
 20
-225.0
 30
0.0
  0
VERTEX
  5
2472
  8
LAYER_1
  6
CONTINUOUS
 10
44.0
 20
-175.0
 30
0.0
  0
VERTEX
  5
2473
  8
LAYER_1
  6
CONTINUOUS
 10
0.699
 20
-150.0
 30
0.0
  0
SEQEND
  5
2474
  8
LAYER_1
  6
CONTINUOUS
  0
POLYLINE
  5
522
  8
LAYER_1
  6
CONTINUOUS
 66
     1
 10
0.0
 20
0.0
 30
0.0
 70
     1
  0
VERTEX
  5
2475
  8
LAYER_1
  6
CONTINUOUS
 10
0.699
 20
50.0
 30
0.0
  0
VERTEX
  5
2476
  8
LAYER_1
  6
CONTINUOUS
 10
-42.601999999999997
 20
25.0
 30
0.0
  0
VERTEX
  5
2477
  8
LAYER_1
  6
CONTINUOUS
 10
-42.601999999999997
 20
-25.0
 30
0.0
  0
VERTEX
  5
2478
  8
LAYER_1
  6
CONTINUOUS
 10
0.699
 20
-50.0
 30
0.0
  0
VERTEX
  5
2479
  8
LAYER_1
  6
CONTINUOUS
 10
44.0
 20
-25.0
 30
0.0
  0
VERTEX
  5
247A
  8
LAYER_1
  6
CONTINUOUS
 10
44.0
 20
25.0
 30
0.0
  0
VERTEX
  5
247B
  8
LAYER_1
  6
CONTINUOUS
 10
0.699
 20
50.0
 30
0.0
  0
SEQEND
  5
247C
  8
LAYER_1
  6
CONTINUOUS
  0
POLYLINE
  5
523
  8
LAYER_1
  6
CONTINUOUS
 66
     1
 10
0.0
 20
0.0
 30
0.0
 70
     1
  0
VERTEX
  5
247D
  8
LAYER_1
  6
CONTINUOUS
 10
0.699
 20
250.0
 30
0.0
  0
VERTEX
  5
247E
  8
LAYER_1
  6
CONTINUOUS
 10
-42.601999999999997
 20
225.0
 30
0.0
  0
VERTEX
  5
247F
  8
LAYER_1
  6
CONTINUOUS
 10
-42.601999999999997
 20
175.0
 30
0.0
  0
VERTEX
  5
2480
  8
LAYER_1
  6
CONTINUOUS
 10
0.699
 20
150.0
 30
0.0
  0
VERTEX
  5
2481
  8
LAYER_1
  6
CONTINUOUS
 10
44.0
 20
175.0
 30
0.0
  0
VERTEX
  5
2482
  8
LAYER_1
  6
CONTINUOUS
 10
44.0
 20
225.0
 30
0.0
  0
VERTEX
  5
2483
  8
LAYER_1
  6
CONTINUOUS
 10
0.699
 20
250.0
 30
0.0
  0
SEQEND
  5
2484
  8
LAYER_1
  6
CONTINUOUS
  0
POLYLINE
  5
524
  8
LAYER_1
  6
CONTINUOUS
 66
     1
 10
0.0
 20
0.0
 30
0.0
 70
     1
  0
VERTEX
  5
2485
  8
LAYER_1
  6
CONTINUOUS
 10
0.699
 20
450.0
 30
0.0
  0
VERTEX
  5
2486
  8
LAYER_1
  6
CONTINUOUS
 10
-42.601999999999997
 20
425.0
 30
0.0
  0
VERTEX
  5
2487
  8
LAYER_1
  6
CONTINUOUS
 10
-42.601999999999997
 20
375.0
 30
0.0
  0
VERTEX
  5
2488
  8
LAYER_1
  6
CONTINUOUS
 10
0.699
 20
350.0
 30
0.0
  0
VERTEX
  5
2489
  8
LAYER_1
  6
CONTINUOUS
 10
44.0
 20
375.0
 30
0.0
  0
VERTEX
  5
248A
  8
LAYER_1
  6
CONTINUOUS
 10
44.0
 20
425.0
 30
0.0
  0
VERTEX
  5
248B
  8
LAYER_1
  6
CONTINUOUS
 10
0.699
 20
450.0
 30
0.0
  0
SEQEND
  5
248C
  8
LAYER_1
  6
CONTINUOUS
  0
POLYLINE
  5
525
  8
LAYER_1
  6
CONTINUOUS
 66
     1
 10
0.0
 20
0.0
 30
0.0
 70
     1
  0
VERTEX
  5
248D
  8
LAYER_1
  6
CONTINUOUS
 10
0.699
 20
650.0
 30
0.0
  0
VERTEX
  5
248E
  8
LAYER_1
  6
CONTINUOUS
 10
-42.601999999999997
 20
625.0
 30
0.0
  0
VERTEX
  5
248F
  8
LAYER_1
  6
CONTINUOUS
 10
-42.601999999999997
 20
575.0
 30
0.0
  0
VERTEX
  5
2490
  8
LAYER_1
  6
CONTINUOUS
 10
0.699
 20
550.0
 30
0.0
  0
VERTEX
  5
2491
  8
LAYER_1
  6
CONTINUOUS
 10
44.0
 20
575.0
 30
0.0
  0
VERTEX
  5
2492
  8
LAYER_1
  6
CONTINUOUS
 10
44.0
 20
625.0
 30
0.0
  0
VERTEX
  5
2493
  8
LAYER_1
  6
CONTINUOUS
 10
0.699
 20
650.0
 30
0.0
  0
SEQEND
  5
2494
  8
LAYER_1
  6
CONTINUOUS
  0
POLYLINE
  5
526
  8
LAYER_1
  6
CONTINUOUS
 66
     1
 10
0.0
 20
0.0
 30
0.0
 70
     1
  0
VERTEX
  5
2495
  8
LAYER_1
  6
CONTINUOUS
 10
0.699
 20
850.0
 30
0.0
  0
VERTEX
  5
2496
  8
LAYER_1
  6
CONTINUOUS
 10
-42.601999999999997
 20
825.0
 30
0.0
  0
VERTEX
  5
2497
  8
LAYER_1
  6
CONTINUOUS
 10
-42.601999999999997
 20
775.0
 30
0.0
  0
VERTEX
  5
2498
  8
LAYER_1
  6
CONTINUOUS
 10
0.699
 20
750.0
 30
0.0
  0
VERTEX
  5
2499
  8
LAYER_1
  6
CONTINUOUS
 10
44.0
 20
775.0
 30
0.0
  0
VERTEX
  5
249A
  8
LAYER_1
  6
CONTINUOUS
 10
44.0
 20
825.0
 30
0.0
  0
VERTEX
  5
249B
  8
LAYER_1
  6
CONTINUOUS
 10
0.699
 20
850.0
 30
0.0
  0
SEQEND
  5
249C
  8
LAYER_1
  6
CONTINUOUS
  0
POLYLINE
  5
527
  8
LAYER_2
  6
CONTINUOUS
 66
     1
 10
0.0
 20
0.0
 30
0.0
 70
     1
  0
VERTEX
  5
249D
  8
LAYER_2
  6
CONTINUOUS
 10
1400.0
 20
-940.0
 30
0.0
  0
VERTEX
  5
249E
  8
LAYER_2
  6
CONTINUOUS
 10
2100.0
 20
-940.0
 30
0.0
  0
VERTEX
  5
249F
  8
LAYER_2
  6
CONTINUOUS
 10
2100.0
 20
960.0
 30
0.0
  0
VERTEX
  5
24A0
  8
LAYER_2
  6
CONTINUOUS
 10
1400.0
 20
960.0
 30
0.0
  0
VERTEX
  5
24A1
  8
LAYER_2
  6
CONTINUOUS
 10
1400.0
 20
-940.0
 30
0.0
  0
SEQEND
  5
24A2
  8
LAYER_2
  6
CONTINUOUS
  0
POLYLINE
  5
528
  8
LAYER_1
  6
CONTINUOUS
 66
     1
 10
0.0
 20
0.0
 30
0.0
 70
     1
  0
VERTEX
  5
24A3
  8
LAYER_1
  6
CONTINUOUS
 10
8426.3520000000008
 20
12984.808000000001
 30
0.0
  0
VERTEX
  5
24A4
  8
LAYER_1
  6
CONTINUOUS
 10
8512.8439999999991
 20
12996.195
 30
0.0
  0
VERTEX
  5
24A5
  8
LAYER_1
  6
CONTINUOUS
 10
8600.0
 20
13000.0
 30
0.0
  0
VERTEX
  5
24A6
  8
LAYER_1
  6
CONTINUOUS
 10
8687.1560000000009
 20
12996.195
 30
0.0
  0
VERTEX
  5
24A7
  8
LAYER_1
  6
CONTINUOUS
 10
8773.6479999999992
 20
12984.808000000001
 30
0.0
  0
VERTEX
  5
24A8
  8
LAYER_1
  6
CONTINUOUS
 10
8858.8189999999995
 20
12965.925999999999
 30
0.0
  0
VERTEX
  5
24A9
  8
LAYER_1
  6
CONTINUOUS
 10
8942.0200000000004
 20
12939.692999999999
 30
0.0
  0
VERTEX
  5
24AA
  8
LAYER_1
  6
CONTINUOUS
 10
9022.6179999999986
 20
12906.308000000001
 30
0.0
  0
VERTEX
  5
24AB
  8
LAYER_1
  6
CONTINUOUS
 10
9100.0
 20
12866.025
 30
0.0
  0
VERTEX
  5
24AC
  8
LAYER_1
  6
CONTINUOUS
 10
9173.5759999999991
 20
12819.152
 30
0.0
  0
VERTEX
  5
24AD
  8
LAYER_1
  6
CONTINUOUS
 10
9242.7880000000005
 20
12766.044
 30
0.0
  0
VERTEX
  5
24AE
  8
LAYER_1
  6
CONTINUOUS
 10
9307.107
 20
12707.107
 30
0.0
  0
VERTEX
  5
24AF
  8
LAYER_1
  6
CONTINUOUS
 10
9366.0439999999999
 20
12642.788
 30
0.0
  0
VERTEX
  5
24B0
  8
LAYER_1
  6
CONTINUOUS
 10
9419.152
 20
12573.575999999999
 30
0.0
  0
VERTEX
  5
24B1
  8
LAYER_1
  6
CONTINUOUS
 10
9466.0249999999996
 20
12500.0
 30
0.0
  0
VERTEX
  5
24B2
  8
LAYER_1
  6
CONTINUOUS
 10
9506.3080000000027
 20
12422.618
 30
0.0
  0
VERTEX
  5
24B3
  8
LAYER_1
  6
CONTINUOUS
 10
9539.6929999999993
 20
12342.02
 30
0.0
  0
VERTEX
  5
24B4
  8
LAYER_1
  6
CONTINUOUS
 10
9565.9260000000013
 20
12258.819
 30
0.0
  0
VERTEX
  5
24B5
  8
LAYER_1
  6
CONTINUOUS
 10
9584.8080000000009
 20
12173.647999999999
 30
0.0
  0
VERTEX
  5
24B6
  8
LAYER_1
  6
CONTINUOUS
 10
9596.1949999999997
 20
12087.156000000001
 30
0.0
  0
VERTEX
  5
24B7
  8
LAYER_1
  6
CONTINUOUS
 10
9600.0
 20
12000.0
 30
0.0
  0
VERTEX
  5
24B8
  8
LAYER_1
  6
CONTINUOUS
 10
9596.1949999999997
 20
11912.843999999999
 30
0.0
  0
VERTEX
  5
24B9
  8
LAYER_1
  6
CONTINUOUS
 10
9592.0190000000002
 20
11881.123
 30
0.0
  0
VERTEX
  5
24BA
  8
LAYER_1
  6
CONTINUOUS
 10
10700.0
 20
12135.127
 30
0.0
  0
VERTEX
  5
24BB
  8
LAYER_1
  6
CONTINUOUS
 10
10700.0
 20
11502.839
 30
0.0
  0
VERTEX
  5
24BC
  8
LAYER_1
  6
CONTINUOUS
 10
8957.0199999999986
 20
11066.52
 30
0.0
  0
VERTEX
  5
24BD
  8
LAYER_1
  6
CONTINUOUS
 10
8942.0200000000004
 20
11060.307000000001
 30
0.0
  0
VERTEX
  5
24BE
  8
LAYER_1
  6
CONTINUOUS
 10
8858.8189999999995
 20
11034.074000000001
 30
0.0
  0
VERTEX
  5
24BF
  8
LAYER_1
  6
CONTINUOUS
 10
8773.6479999999992
 20
11015.191999999999
 30
0.0
  0
VERTEX
  5
24C0
  8
LAYER_1
  6
CONTINUOUS
 10
8687.1560000000009
 20
11003.805
 30
0.0
  0
VERTEX
  5
24C1
  8
LAYER_1
  6
CONTINUOUS
 10
8600.0
 20
11000.0
 30
0.0
  0
VERTEX
  5
24C2
  8
LAYER_1
  6
CONTINUOUS
 10
8512.8439999999991
 20
11003.805
 30
0.0
  0
VERTEX
  5
24C3
  8
LAYER_1
  6
CONTINUOUS
 10
8426.3520000000008
 20
11015.191999999999
 30
0.0
  0
VERTEX
  5
24C4
  8
LAYER_1
  6
CONTINUOUS
 10
8341.1810000000005
 20
11034.074000000001
 30
0.0
  0
VERTEX
  5
24C5
  8
LAYER_1
  6
CONTINUOUS
 10
8257.9799999999996
 20
11060.307000000001
 30
0.0
  0
VERTEX
  5
24C6
  8
LAYER_1
  6
CONTINUOUS
 10
8177.3819999999987
 20
11093.691999999999
 30
0.0
  0
VERTEX
  5
24C7
  8
LAYER_1
  6
CONTINUOUS
 10
8100.0
 20
11133.975
 30
0.0
  0
VERTEX
  5
24C8
  8
LAYER_1
  6
CONTINUOUS
 10
8026.424
 20
11180.848
 30
0.0
  0
VERTEX
  5
24C9
  8
LAYER_1
  6
CONTINUOUS
 10
7957.2120000000014
 20
11233.956
 30
0.0
  0
VERTEX
  5
24CA
  8
LAYER_1
  6
CONTINUOUS
 10
7892.893
 20
11292.893
 30
0.0
  0
VERTEX
  5
24CB
  8
LAYER_1
  6
CONTINUOUS
 10
7833.9560000000001
 20
11357.212
 30
0.0
  0
VERTEX
  5
24CC
  8
LAYER_1
  6
CONTINUOUS
 10
7780.848
 20
11426.424000000001
 30
0.0
  0
VERTEX
  5
24CD
  8
LAYER_1
  6
CONTINUOUS
 10
7733.9750000000004
 20
11500.0
 30
0.0
  0
VERTEX
  5
24CE
  8
LAYER_1
  6
CONTINUOUS
 10
7693.692
 20
11577.382
 30
0.0
  0
VERTEX
  5
24CF
  8
LAYER_1
  6
CONTINUOUS
 10
7660.3069999999998
 20
11657.98
 30
0.0
  0
VERTEX
  5
24D0
  8
LAYER_1
  6
CONTINUOUS
 10
7634.0739999999996
 20
11741.181
 30
0.0
  0
VERTEX
  5
24D1
  8
LAYER_1
  6
CONTINUOUS
 10
7615.192
 20
11826.352000000001
 30
0.0
  0
VERTEX
  5
24D2
  8
LAYER_1
  6
CONTINUOUS
 10
7603.8050000000003
 20
11912.843999999999
 30
0.0
  0
VERTEX
  5
24D3
  8
LAYER_1
  6
CONTINUOUS
 10
7600.0
 20
12000.0
 30
0.0
  0
VERTEX
  5
24D4
  8
LAYER_1
  6
CONTINUOUS
 10
7603.8050000000003
 20
12087.156000000001
 30
0.0
  0
VERTEX
  5
24D5
  8
LAYER_1
  6
CONTINUOUS
 10
7615.192
 20
12173.647999999999
 30
0.0
  0
VERTEX
  5
24D6
  8
LAYER_1
  6
CONTINUOUS
 10
7634.0739999999996
 20
12258.819
 30
0.0
  0
VERTEX
  5
24D7
  8
LAYER_1
  6
CONTINUOUS
 10
7660.3069999999998
 20
12342.02
 30
0.0
  0
VERTEX
  5
24D8
  8
LAYER_1
  6
CONTINUOUS
 10
7693.692
 20
12422.618
 30
0.0
  0
VERTEX
  5
24D9
  8
LAYER_1
  6
CONTINUOUS
 10
7733.9750000000004
 20
12500.0
 30
0.0
  0
VERTEX
  5
24DA
  8
LAYER_1
  6
CONTINUOUS
 10
7780.848
 20
12573.575999999999
 30
0.0
  0
VERTEX
  5
24DB
  8
LAYER_1
  6
CONTINUOUS
 10
7833.9560000000001
 20
12642.788
 30
0.0
  0
VERTEX
  5
24DC
  8
LAYER_1
  6
CONTINUOUS
 10
7892.893
 20
12707.107
 30
0.0
  0
VERTEX
  5
24DD
  8
LAYER_1
  6
CONTINUOUS
 10
7957.2120000000014
 20
12766.044
 30
0.0
  0
VERTEX
  5
24DE
  8
LAYER_1
  6
CONTINUOUS
 10
8026.424
 20
12819.152
 30
0.0
  0
VERTEX
  5
24DF
  8
LAYER_1
  6
CONTINUOUS
 10
8100.0
 20
12866.025
 30
0.0
  0
VERTEX
  5
24E0
  8
LAYER_1
  6
CONTINUOUS
 10
8177.3819999999987
 20
12906.308000000001
 30
0.0
  0
VERTEX
  5
24E1
  8
LAYER_1
  6
CONTINUOUS
 10
8257.9799999999996
 20
12939.692999999999
 30
0.0
  0
VERTEX
  5
24E2
  8
LAYER_1
  6
CONTINUOUS
 10
8341.1810000000005
 20
12965.925999999999
 30
0.0
  0
VERTEX
  5
24E3
  8
LAYER_1
  6
CONTINUOUS
 10
8426.3520000000008
 20
12984.808000000001
 30
0.0
  0
SEQEND
  5
24E4
  8
LAYER_1
  6
CONTINUOUS
  0
POLYLINE
  5
529
  8
LAYER_1
  6
CONTINUOUS
 66
     1
 10
0.0
 20
0.0
 30
0.0
 70
     1
  0
VERTEX
  5
24E5
  8
LAYER_1
  6
CONTINUOUS
 10
10542.02
 20
9759.6929999999993
 30
0.0
  0
VERTEX
  5
24E6
  8
LAYER_1
  6
CONTINUOUS
 10
10578.565000000001
 20
9744.5560000000005
 30
0.0
  0
VERTEX
  5
24E7
  8
LAYER_1
  6
CONTINUOUS
 10
10700.0
 20
9868.1280000000024
 30
0.0
  0
VERTEX
  5
24E8
  8
LAYER_1
  6
CONTINUOUS
 10
10700.0
 20
7953.9750000000013
 30
0.0
  0
VERTEX
  5
24E9
  8
LAYER_1
  6
CONTINUOUS
 10
10622.618
 20
7913.6920000000009
 30
0.0
  0
VERTEX
  5
24EA
  8
LAYER_1
  6
CONTINUOUS
 10
10542.02
 20
7880.3070000000007
 30
0.0
  0
VERTEX
  5
24EB
  8
LAYER_1
  6
CONTINUOUS
 10
10458.819
 20
7854.0739999999996
 30
0.0
  0
VERTEX
  5
24EC
  8
LAYER_1
  6
CONTINUOUS
 10
10373.647999999999
 20
7835.1920000000009
 30
0.0
  0
VERTEX
  5
24ED
  8
LAYER_1
  6
CONTINUOUS
 10
10287.156000000001
 20
7823.8050000000003
 30
0.0
  0
VERTEX
  5
24EE
  8
LAYER_1
  6
CONTINUOUS
 10
10200.0
 20
7820.0
 30
0.0
  0
VERTEX
  5
24EF
  8
LAYER_1
  6
CONTINUOUS
 10
10112.843999999999
 20
7823.8050000000003
 30
0.0
  0
VERTEX
  5
24F0
  8
LAYER_1
  6
CONTINUOUS
 10
10026.352000000001
 20
7835.1920000000009
 30
0.0
  0
VERTEX
  5
24F1
  8
LAYER_1
  6
CONTINUOUS
 10
9941.1810000000005
 20
7854.0739999999996
 30
0.0
  0
VERTEX
  5
24F2
  8
LAYER_1
  6
CONTINUOUS
 10
9857.9799999999996
 20
7880.3070000000007
 30
0.0
  0
VERTEX
  5
24F3
  8
LAYER_1
  6
CONTINUOUS
 10
9777.3820000000014
 20
7913.6920000000009
 30
0.0
  0
VERTEX
  5
24F4
  8
LAYER_1
  6
CONTINUOUS
 10
9700.0
 20
7953.9750000000013
 30
0.0
  0
VERTEX
  5
24F5
  8
LAYER_1
  6
CONTINUOUS
 10
9626.4240000000009
 20
8000.8480000000009
 30
0.0
  0
VERTEX
  5
24F6
  8
LAYER_1
  6
CONTINUOUS
 10
9557.2119999999995
 20
8053.956000000001
 30
0.0
  0
VERTEX
  5
24F7
  8
LAYER_1
  6
CONTINUOUS
 10
9492.893
 20
8112.8929999999991
 30
0.0
  0
VERTEX
  5
24F8
  8
LAYER_1
  6
CONTINUOUS
 10
9433.9560000000001
 20
8177.2120000000004
 30
0.0
  0
VERTEX
  5
24F9
  8
LAYER_1
  6
CONTINUOUS
 10
9380.848
 20
8246.4240000000009
 30
0.0
  0
VERTEX
  5
24FA
  8
LAYER_1
  6
CONTINUOUS
 10
9333.9750000000004
 20
8320.0
 30
0.0
  0
VERTEX
  5
24FB
  8
LAYER_1
  6
CONTINUOUS
 10
9293.6919999999973
 20
8397.3819999999996
 30
0.0
  0
VERTEX
  5
24FC
  8
LAYER_1
  6
CONTINUOUS
 10
9260.3070000000007
 20
8477.9799999999996
 30
0.0
  0
VERTEX
  5
24FD
  8
LAYER_1
  6
CONTINUOUS
 10
9234.0740000000005
 20
8561.1810000000005
 30
0.0
  0
VERTEX
  5
24FE
  8
LAYER_1
  6
CONTINUOUS
 10
9215.1919999999991
 20
8646.3520000000008
 30
0.0
  0
VERTEX
  5
24FF
  8
LAYER_1
  6
CONTINUOUS
 10
9203.8050000000003
 20
8732.8439999999973
 30
0.0
  0
VERTEX
  5
2500
  8
LAYER_1
  6
CONTINUOUS
 10
9200.0
 20
8820.0
 30
0.0
  0
VERTEX
  5
2501
  8
LAYER_1
  6
CONTINUOUS
 10
9203.8050000000003
 20
8907.1560000000009
 30
0.0
  0
VERTEX
  5
2502
  8
LAYER_1
  6
CONTINUOUS
 10
9215.1919999999991
 20
8993.6479999999974
 30
0.0
  0
VERTEX
  5
2503
  8
LAYER_1
  6
CONTINUOUS
 10
9234.0740000000005
 20
9078.8190000000013
 30
0.0
  0
VERTEX
  5
2504
  8
LAYER_1
  6
CONTINUOUS
 10
9260.3070000000007
 20
9162.0200000000004
 30
0.0
  0
VERTEX
  5
2505
  8
LAYER_1
  6
CONTINUOUS
 10
9293.6919999999973
 20
9242.6180000000004
 30
0.0
  0
VERTEX
  5
2506
  8
LAYER_1
  6
CONTINUOUS
 10
9333.9750000000004
 20
9320.0
 30
0.0
  0
VERTEX
  5
2507
  8
LAYER_1
  6
CONTINUOUS
 10
9380.848
 20
9393.5759999999991
 30
0.0
  0
VERTEX
  5
2508
  8
LAYER_1
  6
CONTINUOUS
 10
9433.9560000000001
 20
9462.7880000000005
 30
0.0
  0
VERTEX
  5
2509
  8
LAYER_1
  6
CONTINUOUS
 10
9492.893
 20
9527.1069999999982
 30
0.0
  0
VERTEX
  5
250A
  8
LAYER_1
  6
CONTINUOUS
 10
9557.2119999999995
 20
9586.0439999999999
 30
0.0
  0
VERTEX
  5
250B
  8
LAYER_1
  6
CONTINUOUS
 10
9626.4240000000009
 20
9639.1520000000019
 30
0.0
  0
VERTEX
  5
250C
  8
LAYER_1
  6
CONTINUOUS
 10
9700.0
 20
9686.0249999999996
 30
0.0
  0
VERTEX
  5
250D
  8
LAYER_1
  6
CONTINUOUS
 10
9777.3820000000014
 20
9726.3080000000027
 30
0.0
  0
VERTEX
  5
250E
  8
LAYER_1
  6
CONTINUOUS
 10
9857.9799999999996
 20
9759.6929999999993
 30
0.0
  0
VERTEX
  5
250F
  8
LAYER_1
  6
CONTINUOUS
 10
9941.1810000000005
 20
9785.9259999999995
 30
0.0
  0
VERTEX
  5
2510
  8
LAYER_1
  6
CONTINUOUS
 10
10026.352000000001
 20
9804.8080000000009
 30
0.0
  0
VERTEX
  5
2511
  8
LAYER_1
  6
CONTINUOUS
 10
10112.843999999999
 20
9816.1949999999997
 30
0.0
  0
VERTEX
  5
2512
  8
LAYER_1
  6
CONTINUOUS
 10
10200.0
 20
9820.0
 30
0.0
  0
VERTEX
  5
2513
  8
LAYER_1
  6
CONTINUOUS
 10
10287.156000000001
 20
9816.1949999999997
 30
0.0
  0
VERTEX
  5
2514
  8
LAYER_1
  6
CONTINUOUS
 10
10373.647999999999
 20
9804.8080000000009
 30
0.0
  0
VERTEX
  5
2515
  8
LAYER_1
  6
CONTINUOUS
 10
10458.819
 20
9785.9259999999995
 30
0.0
  0
VERTEX
  5
2516
  8
LAYER_1
  6
CONTINUOUS
 10
10542.02
 20
9759.6929999999993
 30
0.0
  0
SEQEND
  5
2517
  8
LAYER_1
  6
CONTINUOUS
  0
POLYLINE
  5
52A
  8
LAYER_1
  6
CONTINUOUS
 66
     1
 10
0.0
 20
0.0
 30
0.0
 70
     1
  0
VERTEX
  5
2518
  8
LAYER_1
  6
CONTINUOUS
 10
13450.0
 20
13460.0
 30
0.0
  0
VERTEX
  5
2519
  8
LAYER_1
  6
CONTINUOUS
 10
13450.0
 20
13520.0
 30
0.0
  0
VERTEX
  5
251A
  8
LAYER_1
  6
CONTINUOUS
 10
13800.0
 20
13520.0
 30
0.0
  0
VERTEX
  5
251B
  8
LAYER_1
  6
CONTINUOUS
 10
13800.0
 20
7820.0
 30
0.0
  0
VERTEX
  5
251C
  8
LAYER_1
  6
CONTINUOUS
 10
13712.843999999999
 20
7823.8050000000003
 30
0.0
  0
VERTEX
  5
251D
  8
LAYER_1
  6
CONTINUOUS
 10
13626.352000000001
 20
7835.1920000000009
 30
0.0
  0
VERTEX
  5
251E
  8
LAYER_1
  6
CONTINUOUS
 10
13541.181
 20
7854.0739999999996
 30
0.0
  0
VERTEX
  5
251F
  8
LAYER_1
  6
CONTINUOUS
 10
13457.98
 20
7880.3070000000007
 30
0.0
  0
VERTEX
  5
2520
  8
LAYER_1
  6
CONTINUOUS
 10
13377.382
 20
7913.6920000000009
 30
0.0
  0
VERTEX
  5
2521
  8
LAYER_1
  6
CONTINUOUS
 10
13300.0
 20
7953.9750000000013
 30
0.0
  0
VERTEX
  5
2522
  8
LAYER_1
  6
CONTINUOUS
 10
13226.424000000001
 20
8000.8480000000009
 30
0.0
  0
VERTEX
  5
2523
  8
LAYER_1
  6
CONTINUOUS
 10
13157.212
 20
8053.956000000001
 30
0.0
  0
VERTEX
  5
2524
  8
LAYER_1
  6
CONTINUOUS
 10
13092.893
 20
8112.8929999999991
 30
0.0
  0
VERTEX
  5
2525
  8
LAYER_1
  6
CONTINUOUS
 10
13033.956
 20
8177.2120000000004
 30
0.0
  0
VERTEX
  5
2526
  8
LAYER_1
  6
CONTINUOUS
 10
12980.848
 20
8246.4240000000009
 30
0.0
  0
VERTEX
  5
2527
  8
LAYER_1
  6
CONTINUOUS
 10
12933.975
 20
8320.0
 30
0.0
  0
VERTEX
  5
2528
  8
LAYER_1
  6
CONTINUOUS
 10
12893.691999999999
 20
8397.3819999999996
 30
0.0
  0
VERTEX
  5
2529
  8
LAYER_1
  6
CONTINUOUS
 10
12860.307000000001
 20
8477.9799999999996
 30
0.0
  0
VERTEX
  5
252A
  8
LAYER_1
  6
CONTINUOUS
 10
12834.074000000001
 20
8561.1810000000005
 30
0.0
  0
VERTEX
  5
252B
  8
LAYER_1
  6
CONTINUOUS
 10
12815.191999999999
 20
8646.3520000000008
 30
0.0
  0
VERTEX
  5
252C
  8
LAYER_1
  6
CONTINUOUS
 10
12803.805
 20
8732.8439999999973
 30
0.0
  0
VERTEX
  5
252D
  8
LAYER_1
  6
CONTINUOUS
 10
12800.0
 20
8820.0
 30
0.0
  0
VERTEX
  5
252E
  8
LAYER_1
  6
CONTINUOUS
 10
12803.805
 20
8907.1560000000009
 30
0.0
  0
VERTEX
  5
252F
  8
LAYER_1
  6
CONTINUOUS
 10
12815.191999999999
 20
8993.6479999999974
 30
0.0
  0
VERTEX
  5
2530
  8
LAYER_1
  6
CONTINUOUS
 10
12834.074000000001
 20
9078.8190000000013
 30
0.0
  0
VERTEX
  5
2531
  8
LAYER_1
  6
CONTINUOUS
 10
12860.307000000001
 20
9162.0200000000004
 30
0.0
  0
VERTEX
  5
2532
  8
LAYER_1
  6
CONTINUOUS
 10
12893.691999999999
 20
9242.6180000000004
 30
0.0
  0
VERTEX
  5
2533
  8
LAYER_1
  6
CONTINUOUS
 10
12933.975
 20
9320.0
 30
0.0
  0
VERTEX
  5
2534
  8
LAYER_1
  6
CONTINUOUS
 10
12980.848
 20
9393.5759999999991
 30
0.0
  0
VERTEX
  5
2535
  8
LAYER_1
  6
CONTINUOUS
 10
13033.956
 20
9462.7880000000005
 30
0.0
  0
VERTEX
  5
2536
  8
LAYER_1
  6
CONTINUOUS
 10
13092.893
 20
9527.1069999999982
 30
0.0
  0
VERTEX
  5
2537
  8
LAYER_1
  6
CONTINUOUS
 10
13157.212
 20
9586.0439999999999
 30
0.0
  0
VERTEX
  5
2538
  8
LAYER_1
  6
CONTINUOUS
 10
13226.424000000001
 20
9639.1520000000019
 30
0.0
  0
VERTEX
  5
2539
  8
LAYER_1
  6
CONTINUOUS
 10
13300.0
 20
9686.0249999999996
 30
0.0
  0
VERTEX
  5
253A
  8
LAYER_1
  6
CONTINUOUS
 10
13377.382
 20
9726.3080000000027
 30
0.0
  0
VERTEX
  5
253B
  8
LAYER_1
  6
CONTINUOUS
 10
13457.98
 20
9759.6929999999993
 30
0.0
  0
VERTEX
  5
253C
  8
LAYER_1
  6
CONTINUOUS
 10
13500.0
 20
9772.9419999999991
 30
0.0
  0
VERTEX
  5
253D
  8
LAYER_1
  6
CONTINUOUS
 10
13500.0
 20
12000.0
 30
0.0
  0
VERTEX
  5
253E
  8
LAYER_1
  6
CONTINUOUS
 10
13493.300999999999
 20
12000.0
 30
0.0
  0
VERTEX
  5
253F
  8
LAYER_1
  6
CONTINUOUS
 10
13493.300999999999
 20
12035.0
 30
0.0
  0
VERTEX
  5
2540
  8
LAYER_1
  6
CONTINUOUS
 10
13450.0
 20
12060.0
 30
0.0
  0
VERTEX
  5
2541
  8
LAYER_1
  6
CONTINUOUS
 10
13406.699000000001
 20
12035.0
 30
0.0
  0
VERTEX
  5
2542
  8
LAYER_1
  6
CONTINUOUS
 10
13406.699000000001
 20
12000.0
 30
0.0
  0
VERTEX
  5
2543
  8
LAYER_1
  6
CONTINUOUS
 10
13400.0
 20
12000.0
 30
0.0
  0
VERTEX
  5
2544
  8
LAYER_1
  6
CONTINUOUS
 10
11009.761
 20
9405.8150000000023
 30
0.0
  0
VERTEX
  5
2545
  8
LAYER_1
  6
CONTINUOUS
 10
11019.152
 20
9393.5759999999991
 30
0.0
  0
VERTEX
  5
2546
  8
LAYER_1
  6
CONTINUOUS
 10
11066.025
 20
9320.0
 30
0.0
  0
VERTEX
  5
2547
  8
LAYER_1
  6
CONTINUOUS
 10
11106.308000000001
 20
9242.6180000000004
 30
0.0
  0
VERTEX
  5
2548
  8
LAYER_1
  6
CONTINUOUS
 10
11139.692999999999
 20
9162.0200000000004
 30
0.0
  0
VERTEX
  5
2549
  8
LAYER_1
  6
CONTINUOUS
 10
11165.925999999999
 20
9078.8190000000013
 30
0.0
  0
VERTEX
  5
254A
  8
LAYER_1
  6
CONTINUOUS
 10
11184.808000000001
 20
8993.6479999999974
 30
0.0
  0
VERTEX
  5
254B
  8
LAYER_1
  6
CONTINUOUS
 10
11196.195
 20
8907.1560000000009
 30
0.0
  0
VERTEX
  5
254C
  8
LAYER_1
  6
CONTINUOUS
 10
11200.0
 20
8820.0
 30
0.0
  0
VERTEX
  5
254D
  8
LAYER_1
  6
CONTINUOUS
 10
11196.195
 20
8732.8439999999973
 30
0.0
  0
VERTEX
  5
254E
  8
LAYER_1
  6
CONTINUOUS
 10
11184.808000000001
 20
8646.3520000000008
 30
0.0
  0
VERTEX
  5
254F
  8
LAYER_1
  6
CONTINUOUS
 10
11165.925999999999
 20
8561.1810000000005
 30
0.0
  0
VERTEX
  5
2550
  8
LAYER_1
  6
CONTINUOUS
 10
11139.692999999999
 20
8477.9799999999996
 30
0.0
  0
VERTEX
  5
2551
  8
LAYER_1
  6
CONTINUOUS
 10
11106.308000000001
 20
8397.3819999999996
 30
0.0
  0
VERTEX
  5
2552
  8
LAYER_1
  6
CONTINUOUS
 10
11066.025
 20
8320.0
 30
0.0
  0
VERTEX
  5
2553
  8
LAYER_1
  6
CONTINUOUS
 10
11019.152
 20
8246.4240000000009
 30
0.0
  0
VERTEX
  5
2554
  8
LAYER_1
  6
CONTINUOUS
 10
10966.044
 20
8177.2120000000004
 30
0.0
  0
VERTEX
  5
2555
  8
LAYER_1
  6
CONTINUOUS
 10
10907.107
 20
8112.8929999999991
 30
0.0
  0
VERTEX
  5
2556
  8
LAYER_1
  6
CONTINUOUS
 10
10842.788
 20
8053.956000000001
 30
0.0
  0
VERTEX
  5
2557
  8
LAYER_1
  6
CONTINUOUS
 10
10773.575999999999
 20
8000.8480000000009
 30
0.0
  0
VERTEX
  5
2558
  8
LAYER_1
  6
CONTINUOUS
 10
10700.0
 20
7953.9750000000013
 30
0.0
  0
VERTEX
  5
2559
  8
LAYER_1
  6
CONTINUOUS
 10
10700.0
 20
9868.1280000000024
 30
0.0
  0
VERTEX
  5
255A
  8
LAYER_1
  6
CONTINUOUS
 10
12795.0
 20
12000.0
 30
0.0
  0
VERTEX
  5
255B
  8
LAYER_1
  6
CONTINUOUS
 10
12793.299999999999
 20
12000.0
 30
0.0
  0
VERTEX
  5
255C
  8
LAYER_1
  6
CONTINUOUS
 10
12793.299999999999
 20
12060.0
 30
0.0
  0
VERTEX
  5
255D
  8
LAYER_1
  6
CONTINUOUS
 10
12706.700000000001
 20
12035.0
 30
0.0
  0
VERTEX
  5
255E
  8
LAYER_1
  6
CONTINUOUS
 10
12706.700000000001
 20
12000.0
 30
0.0
  0
VERTEX
  5
255F
  8
LAYER_1
  6
CONTINUOUS
 10
12686.026
 20
12000.0
 30
0.0
  0
VERTEX
  5
2560
  8
LAYER_1
  6
CONTINUOUS
 10
10700.0
 20
11502.839
 30
0.0
  0
VERTEX
  5
2561
  8
LAYER_1
  6
CONTINUOUS
 10
10700.0
 20
12135.127
 30
0.0
  0
VERTEX
  5
2562
  8
LAYER_1
  6
CONTINUOUS
 10
12050.0
 20
12444.612999999999
 30
0.0
  0
VERTEX
  5
2563
  8
LAYER_1
  6
CONTINUOUS
 10
12050.0
 20
13520.0
 30
0.0
  0
VERTEX
  5
2564
  8
LAYER_1
  6
CONTINUOUS
 10
12793.299999999999
 20
13520.0
 30
0.0
  0
VERTEX
  5
2565
  8
LAYER_1
  6
CONTINUOUS
 10
12793.299999999999
 20
13460.0
 30
0.0
  0
VERTEX
  5
2566
  8
LAYER_1
  6
CONTINUOUS
 10
12706.700000000001
 20
13435.0
 30
0.0
  0
VERTEX
  5
2567
  8
LAYER_1
  6
CONTINUOUS
 10
12706.700000000001
 20
13385.0
 30
0.0
  0
VERTEX
  5
2568
  8
LAYER_1
  6
CONTINUOUS
 10
12793.299999999999
 20
13360.0
 30
0.0
  0
VERTEX
  5
2569
  8
LAYER_1
  6
CONTINUOUS
 10
12793.299999999999
 20
13260.0
 30
0.0
  0
VERTEX
  5
256A
  8
LAYER_1
  6
CONTINUOUS
 10
12706.700000000001
 20
13235.0
 30
0.0
  0
VERTEX
  5
256B
  8
LAYER_1
  6
CONTINUOUS
 10
12706.700000000001
 20
13185.0
 30
0.0
  0
VERTEX
  5
256C
  8
LAYER_1
  6
CONTINUOUS
 10
12793.299999999999
 20
13160.0
 30
0.0
  0
VERTEX
  5
256D
  8
LAYER_1
  6
CONTINUOUS
 10
12793.299999999999
 20
13060.0
 30
0.0
  0
VERTEX
  5
256E
  8
LAYER_1
  6
CONTINUOUS
 10
12706.700000000001
 20
13035.0
 30
0.0
  0
VERTEX
  5
256F
  8
LAYER_1
  6
CONTINUOUS
 10
12706.700000000001
 20
12985.0
 30
0.0
  0
VERTEX
  5
2570
  8
LAYER_1
  6
CONTINUOUS
 10
12793.299999999999
 20
12960.0
 30
0.0
  0
VERTEX
  5
2571
  8
LAYER_1
  6
CONTINUOUS
 10
12793.299999999999
 20
12860.0
 30
0.0
  0
VERTEX
  5
2572
  8
LAYER_1
  6
CONTINUOUS
 10
12706.700000000001
 20
12835.0
 30
0.0
  0
VERTEX
  5
2573
  8
LAYER_1
  6
CONTINUOUS
 10
12706.700000000001
 20
12785.0
 30
0.0
  0
VERTEX
  5
2574
  8
LAYER_1
  6
CONTINUOUS
 10
12793.299999999999
 20
12760.0
 30
0.0
  0
VERTEX
  5
2575
  8
LAYER_1
  6
CONTINUOUS
 10
12793.299999999999
 20
12660.0
 30
0.0
  0
VERTEX
  5
2576
  8
LAYER_1
  6
CONTINUOUS
 10
12706.700000000001
 20
12635.0
 30
0.0
  0
VERTEX
  5
2577
  8
LAYER_1
  6
CONTINUOUS
 10
12706.700000000001
 20
12585.0
 30
0.0
  0
VERTEX
  5
2578
  8
LAYER_1
  6
CONTINUOUS
 10
12793.299999999999
 20
12560.0
 30
0.0
  0
VERTEX
  5
2579
  8
LAYER_1
  6
CONTINUOUS
 10
12793.299999999999
 20
12460.0
 30
0.0
  0
VERTEX
  5
257A
  8
LAYER_1
  6
CONTINUOUS
 10
12706.700000000001
 20
12435.0
 30
0.0
  0
VERTEX
  5
257B
  8
LAYER_1
  6
CONTINUOUS
 10
12706.700000000001
 20
12385.0
 30
0.0
  0
VERTEX
  5
257C
  8
LAYER_1
  6
CONTINUOUS
 10
12793.299999999999
 20
12360.0
 30
0.0
  0
VERTEX
  5
257D
  8
LAYER_1
  6
CONTINUOUS
 10
12793.299999999999
 20
12260.0
 30
0.0
  0
VERTEX
  5
257E
  8
LAYER_1
  6
CONTINUOUS
 10
12706.700000000001
 20
12235.0
 30
0.0
  0
VERTEX
  5
257F
  8
LAYER_1
  6
CONTINUOUS
 10
12706.700000000001
 20
12185.0
 30
0.0
  0
VERTEX
  5
2580
  8
LAYER_1
  6
CONTINUOUS
 10
12793.299999999999
 20
12160.0
 30
0.0
  0
VERTEX
  5
2581
  8
LAYER_1
  6
CONTINUOUS
 10
12793.299999999999
 20
12260.0
 30
0.0
  0
VERTEX
  5
2582
  8
LAYER_1
  6
CONTINUOUS
 10
12793.299999999999
 20
12360.0
 30
0.0
  0
VERTEX
  5
2583
  8
LAYER_1
  6
CONTINUOUS
 10
12793.299999999999
 20
12360.0
 30
0.0
  0
VERTEX
  5
2584
  8
LAYER_1
  6
CONTINUOUS
 10
12793.299999999999
 20
12460.0
 30
0.0
  0
VERTEX
  5
2585
  8
LAYER_1
  6
CONTINUOUS
 10
12793.299999999999
 20
12560.0
 30
0.0
  0
VERTEX
  5
2586
  8
LAYER_1
  6
CONTINUOUS
 10
12793.299999999999
 20
12560.0
 30
0.0
  0
VERTEX
  5
2587
  8
LAYER_1
  6
CONTINUOUS
 10
12793.299999999999
 20
12660.0
 30
0.0
  0
VERTEX
  5
2588
  8
LAYER_1
  6
CONTINUOUS
 10
12793.299999999999
 20
12760.0
 30
0.0
  0
VERTEX
  5
2589
  8
LAYER_1
  6
CONTINUOUS
 10
12793.299999999999
 20
12860.0
 30
0.0
  0
VERTEX
  5
258A
  8
LAYER_1
  6
CONTINUOUS
 10
12793.299999999999
 20
12960.0
 30
0.0
  0
VERTEX
  5
258B
  8
LAYER_1
  6
CONTINUOUS
 10
12793.299999999999
 20
13060.0
 30
0.0
  0
VERTEX
  5
258C
  8
LAYER_1
  6
CONTINUOUS
 10
12793.299999999999
 20
13160.0
 30
0.0
  0
VERTEX
  5
258D
  8
LAYER_1
  6
CONTINUOUS
 10
12793.299999999999
 20
13260.0
 30
0.0
  0
VERTEX
  5
258E
  8
LAYER_1
  6
CONTINUOUS
 10
12793.299999999999
 20
13360.0
 30
0.0
  0
VERTEX
  5
258F
  8
LAYER_1
  6
CONTINUOUS
 10
12793.299999999999
 20
13360.0
 30
0.0
  0
VERTEX
  5
2590
  8
LAYER_1
  6
CONTINUOUS
 10
12793.299999999999
 20
13460.0
 30
0.0
  0
VERTEX
  5
2591
  8
LAYER_1
  6
CONTINUOUS
 10
12793.299999999999
 20
13520.0
 30
0.0
  0
VERTEX
  5
2592
  8
LAYER_1
  6
CONTINUOUS
 10
13450.0
 20
13520.0
 30
0.0
  0
VERTEX
  5
2593
  8
LAYER_1
  6
CONTINUOUS
 10
13450.0
 20
13460.0
 30
0.0
  0
VERTEX
  5
2594
  8
LAYER_1
  6
CONTINUOUS
 10
13406.699000000001
 20
13435.0
 30
0.0
  0
VERTEX
  5
2595
  8
LAYER_1
  6
CONTINUOUS
 10
13406.699000000001
 20
13385.0
 30
0.0
  0
VERTEX
  5
2596
  8
LAYER_1
  6
CONTINUOUS
 10
13450.0
 20
13360.0
 30
0.0
  0
VERTEX
  5
2597
  8
LAYER_1
  6
CONTINUOUS
 10
13450.0
 20
13260.0
 30
0.0
  0
VERTEX
  5
2598
  8
LAYER_1
  6
CONTINUOUS
 10
13406.699000000001
 20
13235.0
 30
0.0
  0
VERTEX
  5
2599
  8
LAYER_1
  6
CONTINUOUS
 10
13406.699000000001
 20
13185.0
 30
0.0
  0
VERTEX
  5
259A
  8
LAYER_1
  6
CONTINUOUS
 10
13450.0
 20
13160.0
 30
0.0
  0
VERTEX
  5
259B
  8
LAYER_1
  6
CONTINUOUS
 10
13450.0
 20
13060.0
 30
0.0
  0
VERTEX
  5
259C
  8
LAYER_1
  6
CONTINUOUS
 10
13406.699000000001
 20
13035.0
 30
0.0
  0
VERTEX
  5
259D
  8
LAYER_1
  6
CONTINUOUS
 10
13406.699000000001
 20
12985.0
 30
0.0
  0
VERTEX
  5
259E
  8
LAYER_1
  6
CONTINUOUS
 10
13450.0
 20
12960.0
 30
0.0
  0
VERTEX
  5
259F
  8
LAYER_1
  6
CONTINUOUS
 10
13450.0
 20
12860.0
 30
0.0
  0
VERTEX
  5
25A0
  8
LAYER_1
  6
CONTINUOUS
 10
13406.699000000001
 20
12835.0
 30
0.0
  0
VERTEX
  5
25A1
  8
LAYER_1
  6
CONTINUOUS
 10
13406.699000000001
 20
12785.0
 30
0.0
  0
VERTEX
  5
25A2
  8
LAYER_1
  6
CONTINUOUS
 10
13450.0
 20
12760.0
 30
0.0
  0
VERTEX
  5
25A3
  8
LAYER_1
  6
CONTINUOUS
 10
13450.0
 20
12660.0
 30
0.0
  0
VERTEX
  5
25A4
  8
LAYER_1
  6
CONTINUOUS
 10
13406.699000000001
 20
12635.0
 30
0.0
  0
VERTEX
  5
25A5
  8
LAYER_1
  6
CONTINUOUS
 10
13406.699000000001
 20
12585.0
 30
0.0
  0
VERTEX
  5
25A6
  8
LAYER_1
  6
CONTINUOUS
 10
13450.0
 20
12560.0
 30
0.0
  0
VERTEX
  5
25A7
  8
LAYER_1
  6
CONTINUOUS
 10
13450.0
 20
12460.0
 30
0.0
  0
VERTEX
  5
25A8
  8
LAYER_1
  6
CONTINUOUS
 10
13406.699000000001
 20
12435.0
 30
0.0
  0
VERTEX
  5
25A9
  8
LAYER_1
  6
CONTINUOUS
 10
13406.699000000001
 20
12385.0
 30
0.0
  0
VERTEX
  5
25AA
  8
LAYER_1
  6
CONTINUOUS
 10
13450.0
 20
12360.0
 30
0.0
  0
VERTEX
  5
25AB
  8
LAYER_1
  6
CONTINUOUS
 10
13450.0
 20
12260.0
 30
0.0
  0
VERTEX
  5
25AC
  8
LAYER_1
  6
CONTINUOUS
 10
13406.699000000001
 20
12235.0
 30
0.0
  0
VERTEX
  5
25AD
  8
LAYER_1
  6
CONTINUOUS
 10
13406.699000000001
 20
12185.0
 30
0.0
  0
VERTEX
  5
25AE
  8
LAYER_1
  6
CONTINUOUS
 10
13450.0
 20
12160.0
 30
0.0
  0
VERTEX
  5
25AF
  8
LAYER_1
  6
CONTINUOUS
 10
13493.300999999999
 20
12185.0
 30
0.0
  0
VERTEX
  5
25B0
  8
LAYER_1
  6
CONTINUOUS
 10
13493.300999999999
 20
12235.0
 30
0.0
  0
VERTEX
  5
25B1
  8
LAYER_1
  6
CONTINUOUS
 10
13450.0
 20
12260.0
 30
0.0
  0
VERTEX
  5
25B2
  8
LAYER_1
  6
CONTINUOUS
 10
13450.0
 20
12360.0
 30
0.0
  0
VERTEX
  5
25B3
  8
LAYER_1
  6
CONTINUOUS
 10
13450.0
 20
12360.0
 30
0.0
  0
VERTEX
  5
25B4
  8
LAYER_1
  6
CONTINUOUS
 10
13493.300999999999
 20
12385.0
 30
0.0
  0
VERTEX
  5
25B5
  8
LAYER_1
  6
CONTINUOUS
 10
13493.300999999999
 20
12435.0
 30
0.0
  0
VERTEX
  5
25B6
  8
LAYER_1
  6
CONTINUOUS
 10
13450.0
 20
12460.0
 30
0.0
  0
VERTEX
  5
25B7
  8
LAYER_1
  6
CONTINUOUS
 10
13450.0
 20
12560.0
 30
0.0
  0
VERTEX
  5
25B8
  8
LAYER_1
  6
CONTINUOUS
 10
13450.0
 20
12560.0
 30
0.0
  0
VERTEX
  5
25B9
  8
LAYER_1
  6
CONTINUOUS
 10
13493.300999999999
 20
12585.0
 30
0.0
  0
VERTEX
  5
25BA
  8
LAYER_1
  6
CONTINUOUS
 10
13493.300999999999
 20
12635.0
 30
0.0
  0
VERTEX
  5
25BB
  8
LAYER_1
  6
CONTINUOUS
 10
13450.0
 20
12660.0
 30
0.0
  0
VERTEX
  5
25BC
  8
LAYER_1
  6
CONTINUOUS
 10
13450.0
 20
12760.0
 30
0.0
  0
VERTEX
  5
25BD
  8
LAYER_1
  6
CONTINUOUS
 10
13450.0
 20
12760.0
 30
0.0
  0
VERTEX
  5
25BE
  8
LAYER_1
  6
CONTINUOUS
 10
13493.300999999999
 20
12785.0
 30
0.0
  0
VERTEX
  5
25BF
  8
LAYER_1
  6
CONTINUOUS
 10
13493.300999999999
 20
12835.0
 30
0.0
  0
VERTEX
  5
25C0
  8
LAYER_1
  6
CONTINUOUS
 10
13450.0
 20
12860.0
 30
0.0
  0
VERTEX
  5
25C1
  8
LAYER_1
  6
CONTINUOUS
 10
13450.0
 20
12960.0
 30
0.0
  0
VERTEX
  5
25C2
  8
LAYER_1
  6
CONTINUOUS
 10
13450.0
 20
12960.0
 30
0.0
  0
VERTEX
  5
25C3
  8
LAYER_1
  6
CONTINUOUS
 10
13493.300999999999
 20
12985.0
 30
0.0
  0
VERTEX
  5
25C4
  8
LAYER_1
  6
CONTINUOUS
 10
13493.300999999999
 20
13035.0
 30
0.0
  0
VERTEX
  5
25C5
  8
LAYER_1
  6
CONTINUOUS
 10
13450.0
 20
13060.0
 30
0.0
  0
VERTEX
  5
25C6
  8
LAYER_1
  6
CONTINUOUS
 10
13450.0
 20
13160.0
 30
0.0
  0
VERTEX
  5
25C7
  8
LAYER_1
  6
CONTINUOUS
 10
13450.0
 20
13160.0
 30
0.0
  0
VERTEX
  5
25C8
  8
LAYER_1
  6
CONTINUOUS
 10
13493.300999999999
 20
13185.0
 30
0.0
  0
VERTEX
  5
25C9
  8
LAYER_1
  6
CONTINUOUS
 10
13493.300999999999
 20
13235.0
 30
0.0
  0
VERTEX
  5
25CA
  8
LAYER_1
  6
CONTINUOUS
 10
13450.0
 20
13260.0
 30
0.0
  0
VERTEX
  5
25CB
  8
LAYER_1
  6
CONTINUOUS
 10
13450.0
 20
13360.0
 30
0.0
  0
VERTEX
  5
25CC
  8
LAYER_1
  6
CONTINUOUS
 10
13493.300999999999
 20
13385.0
 30
0.0
  0
VERTEX
  5
25CD
  8
LAYER_1
  6
CONTINUOUS
 10
13493.300999999999
 20
13435.0
 30
0.0
  0
VERTEX
  5
25CE
  8
LAYER_1
  6
CONTINUOUS
 10
13450.0
 20
13460.0
 30
0.0
  0
SEQEND
  5
25CF
  8
LAYER_1
  6
CONTINUOUS
  0
POLYLINE
  5
52B
  8
LAYER_1
  6
CONTINUOUS
 66
     1
 10
0.0
 20
0.0
 30
0.0
 70
     1
  0
VERTEX
  5
25D0
  8
LAYER_1
  6
CONTINUOUS
 10
10026.352000000001
 20
19204.808000000001
 30
0.0
  0
VERTEX
  5
25D1
  8
LAYER_1
  6
CONTINUOUS
 10
10112.843999999999
 20
19216.195
 30
0.0
  0
VERTEX
  5
25D2
  8
LAYER_1
  6
CONTINUOUS
 10
10200.0
 20
19220.0
 30
0.0
  0
VERTEX
  5
25D3
  8
LAYER_1
  6
CONTINUOUS
 10
10287.156000000001
 20
19216.195
 30
0.0
  0
VERTEX
  5
25D4
  8
LAYER_1
  6
CONTINUOUS
 10
10373.647999999999
 20
19204.808000000001
 30
0.0
  0
VERTEX
  5
25D5
  8
LAYER_1
  6
CONTINUOUS
 10
10458.819
 20
19185.925999999999
 30
0.0
  0
VERTEX
  5
25D6
  8
LAYER_1
  6
CONTINUOUS
 10
10542.02
 20
19159.692999999999
 30
0.0
  0
VERTEX
  5
25D7
  8
LAYER_1
  6
CONTINUOUS
 10
10622.618
 20
19126.308000000001
 30
0.0
  0
VERTEX
  5
25D8
  8
LAYER_1
  6
CONTINUOUS
 10
10700.0
 20
19086.025000000001
 30
0.0
  0
VERTEX
  5
25D9
  8
LAYER_1
  6
CONTINUOUS
 10
10700.0
 20
17151.873
 30
0.0
  0
VERTEX
  5
25DA
  8
LAYER_1
  6
CONTINUOUS
 10
10564.597
 20
17289.659
 30
0.0
  0
VERTEX
  5
25DB
  8
LAYER_1
  6
CONTINUOUS
 10
10542.02
 20
17280.307000000001
 30
0.0
  0
VERTEX
  5
25DC
  8
LAYER_1
  6
CONTINUOUS
 10
10458.819
 20
17254.074000000001
 30
0.0
  0
VERTEX
  5
25DD
  8
LAYER_1
  6
CONTINUOUS
 10
10373.647999999999
 20
17235.191999999999
 30
0.0
  0
VERTEX
  5
25DE
  8
LAYER_1
  6
CONTINUOUS
 10
10287.156000000001
 20
17223.805
 30
0.0
  0
VERTEX
  5
25DF
  8
LAYER_1
  6
CONTINUOUS
 10
10200.0
 20
17220.0
 30
0.0
  0
VERTEX
  5
25E0
  8
LAYER_1
  6
CONTINUOUS
 10
10112.843999999999
 20
17223.805
 30
0.0
  0
VERTEX
  5
25E1
  8
LAYER_1
  6
CONTINUOUS
 10
10026.352000000001
 20
17235.191999999999
 30
0.0
  0
VERTEX
  5
25E2
  8
LAYER_1
  6
CONTINUOUS
 10
9941.1810000000005
 20
17254.074000000001
 30
0.0
  0
VERTEX
  5
25E3
  8
LAYER_1
  6
CONTINUOUS
 10
9857.9799999999996
 20
17280.307000000001
 30
0.0
  0
VERTEX
  5
25E4
  8
LAYER_1
  6
CONTINUOUS
 10
9777.3820000000014
 20
17313.691999999999
 30
0.0
  0
VERTEX
  5
25E5
  8
LAYER_1
  6
CONTINUOUS
 10
9700.0
 20
17353.974999999999
 30
0.0
  0
VERTEX
  5
25E6
  8
LAYER_1
  6
CONTINUOUS
 10
9626.4240000000009
 20
17400.848000000002
 30
0.0
  0
VERTEX
  5
25E7
  8
LAYER_1
  6
CONTINUOUS
 10
9557.2119999999995
 20
17453.955999999998
 30
0.0
  0
VERTEX
  5
25E8
  8
LAYER_1
  6
CONTINUOUS
 10
9492.893
 20
17512.893
 30
0.0
  0
VERTEX
  5
25E9
  8
LAYER_1
  6
CONTINUOUS
 10
9433.9560000000001
 20
17577.212
 30
0.0
  0
VERTEX
  5
25EA
  8
LAYER_1
  6
CONTINUOUS
 10
9380.848
 20
17646.423999999999
 30
0.0
  0
VERTEX
  5
25EB
  8
LAYER_1
  6
CONTINUOUS
 10
9333.9750000000004
 20
17720.0
 30
0.0
  0
VERTEX
  5
25EC
  8
LAYER_1
  6
CONTINUOUS
 10
9293.6919999999973
 20
17797.382000000001
 30
0.0
  0
VERTEX
  5
25ED
  8
LAYER_1
  6
CONTINUOUS
 10
9260.3070000000007
 20
17877.98
 30
0.0
  0
VERTEX
  5
25EE
  8
LAYER_1
  6
CONTINUOUS
 10
9234.0740000000005
 20
17961.181
 30
0.0
  0
VERTEX
  5
25EF
  8
LAYER_1
  6
CONTINUOUS
 10
9215.1919999999991
 20
18046.351999999999
 30
0.0
  0
VERTEX
  5
25F0
  8
LAYER_1
  6
CONTINUOUS
 10
9203.8050000000003
 20
18132.844000000001
 30
0.0
  0
VERTEX
  5
25F1
  8
LAYER_1
  6
CONTINUOUS
 10
9200.0
 20
18220.0
 30
0.0
  0
VERTEX
  5
25F2
  8
LAYER_1
  6
CONTINUOUS
 10
9203.8050000000003
 20
18307.155999999999
 30
0.0
  0
VERTEX
  5
25F3
  8
LAYER_1
  6
CONTINUOUS
 10
9215.1919999999991
 20
18393.648000000001
 30
0.0
  0
VERTEX
  5
25F4
  8
LAYER_1
  6
CONTINUOUS
 10
9234.0740000000005
 20
18478.819
 30
0.0
  0
VERTEX
  5
25F5
  8
LAYER_1
  6
CONTINUOUS
 10
9260.3070000000007
 20
18562.02
 30
0.0
  0
VERTEX
  5
25F6
  8
LAYER_1
  6
CONTINUOUS
 10
9293.6919999999973
 20
18642.617999999999
 30
0.0
  0
VERTEX
  5
25F7
  8
LAYER_1
  6
CONTINUOUS
 10
9333.9750000000004
 20
18720.0
 30
0.0
  0
VERTEX
  5
25F8
  8
LAYER_1
  6
CONTINUOUS
 10
9380.848
 20
18793.576000000001
 30
0.0
  0
VERTEX
  5
25F9
  8
LAYER_1
  6
CONTINUOUS
 10
9433.9560000000001
 20
18862.788
 30
0.0
  0
VERTEX
  5
25FA
  8
LAYER_1
  6
CONTINUOUS
 10
9492.893
 20
18927.107
 30
0.0
  0
VERTEX
  5
25FB
  8
LAYER_1
  6
CONTINUOUS
 10
9557.2119999999995
 20
18986.044000000002
 30
0.0
  0
VERTEX
  5
25FC
  8
LAYER_1
  6
CONTINUOUS
 10
9626.4240000000009
 20
19039.151999999998
 30
0.0
  0
VERTEX
  5
25FD
  8
LAYER_1
  6
CONTINUOUS
 10
9700.0
 20
19086.025000000001
 30
0.0
  0
VERTEX
  5
25FE
  8
LAYER_1
  6
CONTINUOUS
 10
9777.3820000000014
 20
19126.308000000001
 30
0.0
  0
VERTEX
  5
25FF
  8
LAYER_1
  6
CONTINUOUS
 10
9857.9799999999996
 20
19159.692999999999
 30
0.0
  0
VERTEX
  5
2600
  8
LAYER_1
  6
CONTINUOUS
 10
9941.1810000000005
 20
19185.925999999999
 30
0.0
  0
VERTEX
  5
2601
  8
LAYER_1
  6
CONTINUOUS
 10
10026.352000000001
 20
19204.808000000001
 30
0.0
  0
SEQEND
  5
2602
  8
LAYER_1
  6
CONTINUOUS
  0
POLYLINE
  5
52C
  8
LAYER_1
  6
CONTINUOUS
 66
     1
 10
0.0
 20
0.0
 30
0.0
 70
     1
  0
VERTEX
  5
2603
  8
LAYER_1
  6
CONTINUOUS
 10
8426.3520000000008
 20
16004.808000000001
 30
0.0
  0
VERTEX
  5
2604
  8
LAYER_1
  6
CONTINUOUS
 10
8512.8439999999991
 20
16016.195
 30
0.0
  0
VERTEX
  5
2605
  8
LAYER_1
  6
CONTINUOUS
 10
8600.0
 20
16020.0
 30
0.0
  0
VERTEX
  5
2606
  8
LAYER_1
  6
CONTINUOUS
 10
8687.1560000000009
 20
16016.195
 30
0.0
  0
VERTEX
  5
2607
  8
LAYER_1
  6
CONTINUOUS
 10
8773.6479999999992
 20
16004.808000000001
 30
0.0
  0
VERTEX
  5
2608
  8
LAYER_1
  6
CONTINUOUS
 10
8858.8189999999995
 20
15985.925999999999
 30
0.0
  0
VERTEX
  5
2609
  8
LAYER_1
  6
CONTINUOUS
 10
8911.0
 20
15969.474
 30
0.0
  0
VERTEX
  5
260A
  8
LAYER_1
  6
CONTINUOUS
 10
8911.0
 20
15970.0
 30
0.0
  0
VERTEX
  5
260B
  8
LAYER_1
  6
CONTINUOUS
 10
10700.0
 20
15522.161
 30
0.0
  0
VERTEX
  5
260C
  8
LAYER_1
  6
CONTINUOUS
 10
10700.0
 20
14889.874
 30
0.0
  0
VERTEX
  5
260D
  8
LAYER_1
  6
CONTINUOUS
 10
9591.3400000000001
 20
15144.032999999999
 30
0.0
  0
VERTEX
  5
260E
  8
LAYER_1
  6
CONTINUOUS
 10
9596.1949999999997
 20
15107.156000000001
 30
0.0
  0
VERTEX
  5
260F
  8
LAYER_1
  6
CONTINUOUS
 10
9600.0
 20
15020.0
 30
0.0
  0
VERTEX
  5
2610
  8
LAYER_1
  6
CONTINUOUS
 10
9596.1949999999997
 20
14932.843999999999
 30
0.0
  0
VERTEX
  5
2611
  8
LAYER_1
  6
CONTINUOUS
 10
9584.8080000000009
 20
14846.352000000001
 30
0.0
  0
VERTEX
  5
2612
  8
LAYER_1
  6
CONTINUOUS
 10
9565.9260000000013
 20
14761.181
 30
0.0
  0
VERTEX
  5
2613
  8
LAYER_1
  6
CONTINUOUS
 10
9539.6929999999993
 20
14677.98
 30
0.0
  0
VERTEX
  5
2614
  8
LAYER_1
  6
CONTINUOUS
 10
9506.3080000000027
 20
14597.382
 30
0.0
  0
VERTEX
  5
2615
  8
LAYER_1
  6
CONTINUOUS
 10
9466.0249999999996
 20
14520.0
 30
0.0
  0
VERTEX
  5
2616
  8
LAYER_1
  6
CONTINUOUS
 10
9419.152
 20
14446.424000000001
 30
0.0
  0
VERTEX
  5
2617
  8
LAYER_1
  6
CONTINUOUS
 10
9366.0439999999999
 20
14377.212
 30
0.0
  0
VERTEX
  5
2618
  8
LAYER_1
  6
CONTINUOUS
 10
9307.107
 20
14312.893
 30
0.0
  0
VERTEX
  5
2619
  8
LAYER_1
  6
CONTINUOUS
 10
9242.7880000000005
 20
14253.956
 30
0.0
  0
VERTEX
  5
261A
  8
LAYER_1
  6
CONTINUOUS
 10
9173.5759999999991
 20
14200.848
 30
0.0
  0
VERTEX
  5
261B
  8
LAYER_1
  6
CONTINUOUS
 10
9100.0
 20
14153.975
 30
0.0
  0
VERTEX
  5
261C
  8
LAYER_1
  6
CONTINUOUS
 10
9022.6179999999986
 20
14113.691999999999
 30
0.0
  0
VERTEX
  5
261D
  8
LAYER_1
  6
CONTINUOUS
 10
8942.0200000000004
 20
14080.307000000001
 30
0.0
  0
VERTEX
  5
261E
  8
LAYER_1
  6
CONTINUOUS
 10
8858.8189999999995
 20
14054.074000000001
 30
0.0
  0
VERTEX
  5
261F
  8
LAYER_1
  6
CONTINUOUS
 10
8773.6479999999992
 20
14035.191999999999
 30
0.0
  0
VERTEX
  5
2620
  8
LAYER_1
  6
CONTINUOUS
 10
8687.1560000000009
 20
14023.805
 30
0.0
  0
VERTEX
  5
2621
  8
LAYER_1
  6
CONTINUOUS
 10
8600.0
 20
14020.0
 30
0.0
  0
VERTEX
  5
2622
  8
LAYER_1
  6
CONTINUOUS
 10
8512.8439999999991
 20
14023.805
 30
0.0
  0
VERTEX
  5
2623
  8
LAYER_1
  6
CONTINUOUS
 10
8426.3520000000008
 20
14035.191999999999
 30
0.0
  0
VERTEX
  5
2624
  8
LAYER_1
  6
CONTINUOUS
 10
8341.1810000000005
 20
14054.074000000001
 30
0.0
  0
VERTEX
  5
2625
  8
LAYER_1
  6
CONTINUOUS
 10
8257.9799999999996
 20
14080.307000000001
 30
0.0
  0
VERTEX
  5
2626
  8
LAYER_1
  6
CONTINUOUS
 10
8177.3819999999987
 20
14113.691999999999
 30
0.0
  0
VERTEX
  5
2627
  8
LAYER_1
  6
CONTINUOUS
 10
8100.0
 20
14153.975
 30
0.0
  0
VERTEX
  5
2628
  8
LAYER_1
  6
CONTINUOUS
 10
8026.424
 20
14200.848
 30
0.0
  0
VERTEX
  5
2629
  8
LAYER_1
  6
CONTINUOUS
 10
7957.2120000000014
 20
14253.956
 30
0.0
  0
VERTEX
  5
262A
  8
LAYER_1
  6
CONTINUOUS
 10
7892.893
 20
14312.893
 30
0.0
  0
VERTEX
  5
262B
  8
LAYER_1
  6
CONTINUOUS
 10
7833.9560000000001
 20
14377.212
 30
0.0
  0
VERTEX
  5
262C
  8
LAYER_1
  6
CONTINUOUS
 10
7780.848
 20
14446.424000000001
 30
0.0
  0
VERTEX
  5
262D
  8
LAYER_1
  6
CONTINUOUS
 10
7733.9750000000004
 20
14520.0
 30
0.0
  0
VERTEX
  5
262E
  8
LAYER_1
  6
CONTINUOUS
 10
7693.692
 20
14597.382
 30
0.0
  0
VERTEX
  5
262F
  8
LAYER_1
  6
CONTINUOUS
 10
7660.3069999999998
 20
14677.98
 30
0.0
  0
VERTEX
  5
2630
  8
LAYER_1
  6
CONTINUOUS
 10
7634.0739999999996
 20
14761.181
 30
0.0
  0
VERTEX
  5
2631
  8
LAYER_1
  6
CONTINUOUS
 10
7615.192
 20
14846.352000000001
 30
0.0
  0
VERTEX
  5
2632
  8
LAYER_1
  6
CONTINUOUS
 10
7603.8050000000003
 20
14932.843999999999
 30
0.0
  0
VERTEX
  5
2633
  8
LAYER_1
  6
CONTINUOUS
 10
7600.0
 20
15020.0
 30
0.0
  0
VERTEX
  5
2634
  8
LAYER_1
  6
CONTINUOUS
 10
7603.8050000000003
 20
15107.156000000001
 30
0.0
  0
VERTEX
  5
2635
  8
LAYER_1
  6
CONTINUOUS
 10
7615.192
 20
15193.647999999999
 30
0.0
  0
VERTEX
  5
2636
  8
LAYER_1
  6
CONTINUOUS
 10
7634.0739999999996
 20
15278.819
 30
0.0
  0
VERTEX
  5
2637
  8
LAYER_1
  6
CONTINUOUS
 10
7660.3069999999998
 20
15362.02
 30
0.0
  0
VERTEX
  5
2638
  8
LAYER_1
  6
CONTINUOUS
 10
7693.692
 20
15442.618
 30
0.0
  0
VERTEX
  5
2639
  8
LAYER_1
  6
CONTINUOUS
 10
7733.9750000000004
 20
15520.0
 30
0.0
  0
VERTEX
  5
263A
  8
LAYER_1
  6
CONTINUOUS
 10
7780.848
 20
15593.575999999999
 30
0.0
  0
VERTEX
  5
263B
  8
LAYER_1
  6
CONTINUOUS
 10
7833.9560000000001
 20
15662.788
 30
0.0
  0
VERTEX
  5
263C
  8
LAYER_1
  6
CONTINUOUS
 10
7892.893
 20
15727.107
 30
0.0
  0
VERTEX
  5
263D
  8
LAYER_1
  6
CONTINUOUS
 10
7957.2120000000014
 20
15786.044
 30
0.0
  0
VERTEX
  5
263E
  8
LAYER_1
  6
CONTINUOUS
 10
8026.424
 20
15839.152
 30
0.0
  0
VERTEX
  5
263F
  8
LAYER_1
  6
CONTINUOUS
 10
8100.0
 20
15886.025
 30
0.0
  0
VERTEX
  5
2640
  8
LAYER_1
  6
CONTINUOUS
 10
8177.3819999999987
 20
15926.308000000001
 30
0.0
  0
VERTEX
  5
2641
  8
LAYER_1
  6
CONTINUOUS
 10
8257.9799999999996
 20
15959.692999999999
 30
0.0
  0
VERTEX
  5
2642
  8
LAYER_1
  6
CONTINUOUS
 10
8341.1810000000005
 20
15985.925999999999
 30
0.0
  0
VERTEX
  5
2643
  8
LAYER_1
  6
CONTINUOUS
 10
8426.3520000000008
 20
16004.808000000001
 30
0.0
  0
SEQEND
  5
2644
  8
LAYER_1
  6
CONTINUOUS
  0
POLYLINE
  5
52D
  8
LAYER_1
  6
CONTINUOUS
 66
     1
 10
0.0
 20
0.0
 30
0.0
 70
     1
  0
VERTEX
  5
2645
  8
LAYER_1
  6
CONTINUOUS
 10
13626.352000000001
 20
19204.808000000001
 30
0.0
  0
VERTEX
  5
2646
  8
LAYER_1
  6
CONTINUOUS
 10
13712.843999999999
 20
19216.195
 30
0.0
  0
VERTEX
  5
2647
  8
LAYER_1
  6
CONTINUOUS
 10
13800.0
 20
19220.0
 30
0.0
  0
VERTEX
  5
2648
  8
LAYER_1
  6
CONTINUOUS
 10
13800.0
 20
13520.0
 30
0.0
  0
VERTEX
  5
2649
  8
LAYER_1
  6
CONTINUOUS
 10
12050.0
 20
13520.0
 30
0.0
  0
VERTEX
  5
264A
  8
LAYER_1
  6
CONTINUOUS
 10
12050.0
 20
14580.387000000001
 30
0.0
  0
VERTEX
  5
264B
  8
LAYER_1
  6
CONTINUOUS
 10
10700.0
 20
14889.874
 30
0.0
  0
VERTEX
  5
264C
  8
LAYER_1
  6
CONTINUOUS
 10
10700.0
 20
15522.161
 30
0.0
  0
VERTEX
  5
264D
  8
LAYER_1
  6
CONTINUOUS
 10
12706.0
 20
15020.0
 30
0.0
  0
VERTEX
  5
264E
  8
LAYER_1
  6
CONTINUOUS
 10
12706.700000000001
 20
15020.0
 30
0.0
  0
VERTEX
  5
264F
  8
LAYER_1
  6
CONTINUOUS
 10
12706.700000000001
 20
14985.0
 30
0.0
  0
VERTEX
  5
2650
  8
LAYER_1
  6
CONTINUOUS
 10
12793.299999999999
 20
14960.0
 30
0.0
  0
VERTEX
  5
2651
  8
LAYER_1
  6
CONTINUOUS
 10
12793.299999999999
 20
14860.0
 30
0.0
  0
VERTEX
  5
2652
  8
LAYER_1
  6
CONTINUOUS
 10
12706.700000000001
 20
14835.0
 30
0.0
  0
VERTEX
  5
2653
  8
LAYER_1
  6
CONTINUOUS
 10
12706.700000000001
 20
14785.0
 30
0.0
  0
VERTEX
  5
2654
  8
LAYER_1
  6
CONTINUOUS
 10
12793.299999999999
 20
14760.0
 30
0.0
  0
VERTEX
  5
2655
  8
LAYER_1
  6
CONTINUOUS
 10
12793.299999999999
 20
14660.0
 30
0.0
  0
VERTEX
  5
2656
  8
LAYER_1
  6
CONTINUOUS
 10
12706.700000000001
 20
14635.0
 30
0.0
  0
VERTEX
  5
2657
  8
LAYER_1
  6
CONTINUOUS
 10
12706.700000000001
 20
14585.0
 30
0.0
  0
VERTEX
  5
2658
  8
LAYER_1
  6
CONTINUOUS
 10
12793.299999999999
 20
14560.0
 30
0.0
  0
VERTEX
  5
2659
  8
LAYER_1
  6
CONTINUOUS
 10
12793.299999999999
 20
14460.0
 30
0.0
  0
VERTEX
  5
265A
  8
LAYER_1
  6
CONTINUOUS
 10
12706.700000000001
 20
14435.0
 30
0.0
  0
VERTEX
  5
265B
  8
LAYER_1
  6
CONTINUOUS
 10
12706.700000000001
 20
14385.0
 30
0.0
  0
VERTEX
  5
265C
  8
LAYER_1
  6
CONTINUOUS
 10
12793.299999999999
 20
14360.0
 30
0.0
  0
VERTEX
  5
265D
  8
LAYER_1
  6
CONTINUOUS
 10
12793.299999999999
 20
14260.0
 30
0.0
  0
VERTEX
  5
265E
  8
LAYER_1
  6
CONTINUOUS
 10
12706.700000000001
 20
14235.0
 30
0.0
  0
VERTEX
  5
265F
  8
LAYER_1
  6
CONTINUOUS
 10
12706.700000000001
 20
14185.0
 30
0.0
  0
VERTEX
  5
2660
  8
LAYER_1
  6
CONTINUOUS
 10
12793.299999999999
 20
14160.0
 30
0.0
  0
VERTEX
  5
2661
  8
LAYER_1
  6
CONTINUOUS
 10
12793.299999999999
 20
14060.0
 30
0.0
  0
VERTEX
  5
2662
  8
LAYER_1
  6
CONTINUOUS
 10
12706.700000000001
 20
14035.0
 30
0.0
  0
VERTEX
  5
2663
  8
LAYER_1
  6
CONTINUOUS
 10
12706.700000000001
 20
13985.0
 30
0.0
  0
VERTEX
  5
2664
  8
LAYER_1
  6
CONTINUOUS
 10
12793.299999999999
 20
13960.0
 30
0.0
  0
VERTEX
  5
2665
  8
LAYER_1
  6
CONTINUOUS
 10
12793.299999999999
 20
13860.0
 30
0.0
  0
VERTEX
  5
2666
  8
LAYER_1
  6
CONTINUOUS
 10
12706.700000000001
 20
13835.0
 30
0.0
  0
VERTEX
  5
2667
  8
LAYER_1
  6
CONTINUOUS
 10
12706.700000000001
 20
13785.0
 30
0.0
  0
VERTEX
  5
2668
  8
LAYER_1
  6
CONTINUOUS
 10
12793.299999999999
 20
13760.0
 30
0.0
  0
VERTEX
  5
2669
  8
LAYER_1
  6
CONTINUOUS
 10
12793.299999999999
 20
13660.0
 30
0.0
  0
VERTEX
  5
266A
  8
LAYER_1
  6
CONTINUOUS
 10
12706.700000000001
 20
13635.0
 30
0.0
  0
VERTEX
  5
266B
  8
LAYER_1
  6
CONTINUOUS
 10
12706.700000000001
 20
13585.0
 30
0.0
  0
VERTEX
  5
266C
  8
LAYER_1
  6
CONTINUOUS
 10
12793.299999999999
 20
13560.0
 30
0.0
  0
VERTEX
  5
266D
  8
LAYER_1
  6
CONTINUOUS
 10
12793.299999999999
 20
13660.0
 30
0.0
  0
VERTEX
  5
266E
  8
LAYER_1
  6
CONTINUOUS
 10
12793.299999999999
 20
13760.0
 30
0.0
  0
VERTEX
  5
266F
  8
LAYER_1
  6
CONTINUOUS
 10
12793.299999999999
 20
13860.0
 30
0.0
  0
VERTEX
  5
2670
  8
LAYER_1
  6
CONTINUOUS
 10
12793.299999999999
 20
13960.0
 30
0.0
  0
VERTEX
  5
2671
  8
LAYER_1
  6
CONTINUOUS
 10
12793.299999999999
 20
14060.0
 30
0.0
  0
VERTEX
  5
2672
  8
LAYER_1
  6
CONTINUOUS
 10
12793.299999999999
 20
14160.0
 30
0.0
  0
VERTEX
  5
2673
  8
LAYER_1
  6
CONTINUOUS
 10
12793.299999999999
 20
14260.0
 30
0.0
  0
VERTEX
  5
2674
  8
LAYER_1
  6
CONTINUOUS
 10
12793.299999999999
 20
14360.0
 30
0.0
  0
VERTEX
  5
2675
  8
LAYER_1
  6
CONTINUOUS
 10
12793.299999999999
 20
14360.0
 30
0.0
  0
VERTEX
  5
2676
  8
LAYER_1
  6
CONTINUOUS
 10
12793.299999999999
 20
14460.0
 30
0.0
  0
VERTEX
  5
2677
  8
LAYER_1
  6
CONTINUOUS
 10
12793.299999999999
 20
14560.0
 30
0.0
  0
VERTEX
  5
2678
  8
LAYER_1
  6
CONTINUOUS
 10
12793.299999999999
 20
14560.0
 30
0.0
  0
VERTEX
  5
2679
  8
LAYER_1
  6
CONTINUOUS
 10
12793.299999999999
 20
14660.0
 30
0.0
  0
VERTEX
  5
267A
  8
LAYER_1
  6
CONTINUOUS
 10
12793.299999999999
 20
14760.0
 30
0.0
  0
VERTEX
  5
267B
  8
LAYER_1
  6
CONTINUOUS
 10
12793.299999999999
 20
14760.0
 30
0.0
  0
VERTEX
  5
267C
  8
LAYER_1
  6
CONTINUOUS
 10
12793.299999999999
 20
14860.0
 30
0.0
  0
VERTEX
  5
267D
  8
LAYER_1
  6
CONTINUOUS
 10
12793.299999999999
 20
14960.0
 30
0.0
  0
VERTEX
  5
267E
  8
LAYER_1
  6
CONTINUOUS
 10
12793.299999999999
 20
15020.0
 30
0.0
  0
VERTEX
  5
267F
  8
LAYER_1
  6
CONTINUOUS
 10
12795.0
 20
15020.0
 30
0.0
  0
VERTEX
  5
2680
  8
LAYER_1
  6
CONTINUOUS
 10
10700.0
 20
17151.873
 30
0.0
  0
VERTEX
  5
2681
  8
LAYER_1
  6
CONTINUOUS
 10
10700.0
 20
19086.025000000001
 30
0.0
  0
VERTEX
  5
2682
  8
LAYER_1
  6
CONTINUOUS
 10
10773.575999999999
 20
19039.151999999998
 30
0.0
  0
VERTEX
  5
2683
  8
LAYER_1
  6
CONTINUOUS
 10
10842.788
 20
18986.044000000002
 30
0.0
  0
VERTEX
  5
2684
  8
LAYER_1
  6
CONTINUOUS
 10
10907.107
 20
18927.107
 30
0.0
  0
VERTEX
  5
2685
  8
LAYER_1
  6
CONTINUOUS
 10
10966.044
 20
18862.788
 30
0.0
  0
VERTEX
  5
2686
  8
LAYER_1
  6
CONTINUOUS
 10
11019.152
 20
18793.576000000001
 30
0.0
  0
VERTEX
  5
2687
  8
LAYER_1
  6
CONTINUOUS
 10
11066.025
 20
18720.0
 30
0.0
  0
VERTEX
  5
2688
  8
LAYER_1
  6
CONTINUOUS
 10
11106.308000000001
 20
18642.617999999999
 30
0.0
  0
VERTEX
  5
2689
  8
LAYER_1
  6
CONTINUOUS
 10
11139.692999999999
 20
18562.02
 30
0.0
  0
VERTEX
  5
268A
  8
LAYER_1
  6
CONTINUOUS
 10
11165.925999999999
 20
18478.819
 30
0.0
  0
VERTEX
  5
268B
  8
LAYER_1
  6
CONTINUOUS
 10
11184.808000000001
 20
18393.648000000001
 30
0.0
  0
VERTEX
  5
268C
  8
LAYER_1
  6
CONTINUOUS
 10
11196.195
 20
18307.155999999999
 30
0.0
  0
VERTEX
  5
268D
  8
LAYER_1
  6
CONTINUOUS
 10
11200.0
 20
18220.0
 30
0.0
  0
VERTEX
  5
268E
  8
LAYER_1
  6
CONTINUOUS
 10
11196.195
 20
18132.844000000001
 30
0.0
  0
VERTEX
  5
268F
  8
LAYER_1
  6
CONTINUOUS
 10
11184.808000000001
 20
18046.351999999999
 30
0.0
  0
VERTEX
  5
2690
  8
LAYER_1
  6
CONTINUOUS
 10
11165.925999999999
 20
17961.181
 30
0.0
  0
VERTEX
  5
2691
  8
LAYER_1
  6
CONTINUOUS
 10
11139.692999999999
 20
17877.98
 30
0.0
  0
VERTEX
  5
2692
  8
LAYER_1
  6
CONTINUOUS
 10
11106.308000000001
 20
17797.382000000001
 30
0.0
  0
VERTEX
  5
2693
  8
LAYER_1
  6
CONTINUOUS
 10
11066.025
 20
17720.0
 30
0.0
  0
VERTEX
  5
2694
  8
LAYER_1
  6
CONTINUOUS
 10
11019.152
 20
17646.423999999999
 30
0.0
  0
VERTEX
  5
2695
  8
LAYER_1
  6
CONTINUOUS
 10
11001.387000000001
 20
17623.273000000001
 30
0.0
  0
VERTEX
  5
2696
  8
LAYER_1
  6
CONTINUOUS
 10
13400.0
 20
15020.0
 30
0.0
  0
VERTEX
  5
2697
  8
LAYER_1
  6
CONTINUOUS
 10
13406.699000000001
 20
15020.0
 30
0.0
  0
VERTEX
  5
2698
  8
LAYER_1
  6
CONTINUOUS
 10
13406.699000000001
 20
14985.0
 30
0.0
  0
VERTEX
  5
2699
  8
LAYER_1
  6
CONTINUOUS
 10
13450.0
 20
14960.0
 30
0.0
  0
VERTEX
  5
269A
  8
LAYER_1
  6
CONTINUOUS
 10
13450.0
 20
14860.0
 30
0.0
  0
VERTEX
  5
269B
  8
LAYER_1
  6
CONTINUOUS
 10
13406.699000000001
 20
14835.0
 30
0.0
  0
VERTEX
  5
269C
  8
LAYER_1
  6
CONTINUOUS
 10
13406.699000000001
 20
14785.0
 30
0.0
  0
VERTEX
  5
269D
  8
LAYER_1
  6
CONTINUOUS
 10
13450.0
 20
14760.0
 30
0.0
  0
VERTEX
  5
269E
  8
LAYER_1
  6
CONTINUOUS
 10
13450.0
 20
14660.0
 30
0.0
  0
VERTEX
  5
269F
  8
LAYER_1
  6
CONTINUOUS
 10
13406.699000000001
 20
14635.0
 30
0.0
  0
VERTEX
  5
26A0
  8
LAYER_1
  6
CONTINUOUS
 10
13406.699000000001
 20
14585.0
 30
0.0
  0
VERTEX
  5
26A1
  8
LAYER_1
  6
CONTINUOUS
 10
13450.0
 20
14560.0
 30
0.0
  0
VERTEX
  5
26A2
  8
LAYER_1
  6
CONTINUOUS
 10
13450.0
 20
14460.0
 30
0.0
  0
VERTEX
  5
26A3
  8
LAYER_1
  6
CONTINUOUS
 10
13406.699000000001
 20
14435.0
 30
0.0
  0
VERTEX
  5
26A4
  8
LAYER_1
  6
CONTINUOUS
 10
13406.699000000001
 20
14385.0
 30
0.0
  0
VERTEX
  5
26A5
  8
LAYER_1
  6
CONTINUOUS
 10
13450.0
 20
14360.0
 30
0.0
  0
VERTEX
  5
26A6
  8
LAYER_1
  6
CONTINUOUS
 10
13450.0
 20
14260.0
 30
0.0
  0
VERTEX
  5
26A7
  8
LAYER_1
  6
CONTINUOUS
 10
13406.699000000001
 20
14235.0
 30
0.0
  0
VERTEX
  5
26A8
  8
LAYER_1
  6
CONTINUOUS
 10
13406.699000000001
 20
14185.0
 30
0.0
  0
VERTEX
  5
26A9
  8
LAYER_1
  6
CONTINUOUS
 10
13450.0
 20
14160.0
 30
0.0
  0
VERTEX
  5
26AA
  8
LAYER_1
  6
CONTINUOUS
 10
13450.0
 20
14060.0
 30
0.0
  0
VERTEX
  5
26AB
  8
LAYER_1
  6
CONTINUOUS
 10
13406.699000000001
 20
14035.0
 30
0.0
  0
VERTEX
  5
26AC
  8
LAYER_1
  6
CONTINUOUS
 10
13406.699000000001
 20
13985.0
 30
0.0
  0
VERTEX
  5
26AD
  8
LAYER_1
  6
CONTINUOUS
 10
13450.0
 20
13960.0
 30
0.0
  0
VERTEX
  5
26AE
  8
LAYER_1
  6
CONTINUOUS
 10
13450.0
 20
13860.0
 30
0.0
  0
VERTEX
  5
26AF
  8
LAYER_1
  6
CONTINUOUS
 10
13406.699000000001
 20
13835.0
 30
0.0
  0
VERTEX
  5
26B0
  8
LAYER_1
  6
CONTINUOUS
 10
13406.699000000001
 20
13785.0
 30
0.0
  0
VERTEX
  5
26B1
  8
LAYER_1
  6
CONTINUOUS
 10
13450.0
 20
13760.0
 30
0.0
  0
VERTEX
  5
26B2
  8
LAYER_1
  6
CONTINUOUS
 10
13450.0
 20
13660.0
 30
0.0
  0
VERTEX
  5
26B3
  8
LAYER_1
  6
CONTINUOUS
 10
13406.699000000001
 20
13635.0
 30
0.0
  0
VERTEX
  5
26B4
  8
LAYER_1
  6
CONTINUOUS
 10
13406.699000000001
 20
13585.0
 30
0.0
  0
VERTEX
  5
26B5
  8
LAYER_1
  6
CONTINUOUS
 10
13450.0
 20
13560.0
 30
0.0
  0
VERTEX
  5
26B6
  8
LAYER_1
  6
CONTINUOUS
 10
13493.300999999999
 20
13585.0
 30
0.0
  0
VERTEX
  5
26B7
  8
LAYER_1
  6
CONTINUOUS
 10
13493.300999999999
 20
13635.0
 30
0.0
  0
VERTEX
  5
26B8
  8
LAYER_1
  6
CONTINUOUS
 10
13450.0
 20
13660.0
 30
0.0
  0
VERTEX
  5
26B9
  8
LAYER_1
  6
CONTINUOUS
 10
13450.0
 20
13760.0
 30
0.0
  0
VERTEX
  5
26BA
  8
LAYER_1
  6
CONTINUOUS
 10
13450.0
 20
13760.0
 30
0.0
  0
VERTEX
  5
26BB
  8
LAYER_1
  6
CONTINUOUS
 10
13493.300999999999
 20
13785.0
 30
0.0
  0
VERTEX
  5
26BC
  8
LAYER_1
  6
CONTINUOUS
 10
13493.300999999999
 20
13835.0
 30
0.0
  0
VERTEX
  5
26BD
  8
LAYER_1
  6
CONTINUOUS
 10
13450.0
 20
13860.0
 30
0.0
  0
VERTEX
  5
26BE
  8
LAYER_1
  6
CONTINUOUS
 10
13450.0
 20
13960.0
 30
0.0
  0
VERTEX
  5
26BF
  8
LAYER_1
  6
CONTINUOUS
 10
13493.300999999999
 20
13985.0
 30
0.0
  0
VERTEX
  5
26C0
  8
LAYER_1
  6
CONTINUOUS
 10
13493.300999999999
 20
14035.0
 30
0.0
  0
VERTEX
  5
26C1
  8
LAYER_1
  6
CONTINUOUS
 10
13450.0
 20
14060.0
 30
0.0
  0
VERTEX
  5
26C2
  8
LAYER_1
  6
CONTINUOUS
 10
13450.0
 20
14160.0
 30
0.0
  0
VERTEX
  5
26C3
  8
LAYER_1
  6
CONTINUOUS
 10
13450.0
 20
14160.0
 30
0.0
  0
VERTEX
  5
26C4
  8
LAYER_1
  6
CONTINUOUS
 10
13493.300999999999
 20
14185.0
 30
0.0
  0
VERTEX
  5
26C5
  8
LAYER_1
  6
CONTINUOUS
 10
13493.300999999999
 20
14235.0
 30
0.0
  0
VERTEX
  5
26C6
  8
LAYER_1
  6
CONTINUOUS
 10
13450.0
 20
14260.0
 30
0.0
  0
VERTEX
  5
26C7
  8
LAYER_1
  6
CONTINUOUS
 10
13450.0
 20
14360.0
 30
0.0
  0
VERTEX
  5
26C8
  8
LAYER_1
  6
CONTINUOUS
 10
13450.0
 20
14360.0
 30
0.0
  0
VERTEX
  5
26C9
  8
LAYER_1
  6
CONTINUOUS
 10
13493.300999999999
 20
14385.0
 30
0.0
  0
VERTEX
  5
26CA
  8
LAYER_1
  6
CONTINUOUS
 10
13493.300999999999
 20
14435.0
 30
0.0
  0
VERTEX
  5
26CB
  8
LAYER_1
  6
CONTINUOUS
 10
13450.0
 20
14460.0
 30
0.0
  0
VERTEX
  5
26CC
  8
LAYER_1
  6
CONTINUOUS
 10
13450.0
 20
14560.0
 30
0.0
  0
VERTEX
  5
26CD
  8
LAYER_1
  6
CONTINUOUS
 10
13493.300999999999
 20
14585.0
 30
0.0
  0
VERTEX
  5
26CE
  8
LAYER_1
  6
CONTINUOUS
 10
13493.300999999999
 20
14635.0
 30
0.0
  0
VERTEX
  5
26CF
  8
LAYER_1
  6
CONTINUOUS
 10
13450.0
 20
14660.0
 30
0.0
  0
VERTEX
  5
26D0
  8
LAYER_1
  6
CONTINUOUS
 10
13450.0
 20
14760.0
 30
0.0
  0
VERTEX
  5
26D1
  8
LAYER_1
  6
CONTINUOUS
 10
13450.0
 20
14760.0
 30
0.0
  0
VERTEX
  5
26D2
  8
LAYER_1
  6
CONTINUOUS
 10
13493.300999999999
 20
14785.0
 30
0.0
  0
VERTEX
  5
26D3
  8
LAYER_1
  6
CONTINUOUS
 10
13493.300999999999
 20
14835.0
 30
0.0
  0
VERTEX
  5
26D4
  8
LAYER_1
  6
CONTINUOUS
 10
13450.0
 20
14860.0
 30
0.0
  0
VERTEX
  5
26D5
  8
LAYER_1
  6
CONTINUOUS
 10
13450.0
 20
14960.0
 30
0.0
  0
VERTEX
  5
26D6
  8
LAYER_1
  6
CONTINUOUS
 10
13450.0
 20
14960.0
 30
0.0
  0
VERTEX
  5
26D7
  8
LAYER_1
  6
CONTINUOUS
 10
13493.300999999999
 20
14985.0
 30
0.0
  0
VERTEX
  5
26D8
  8
LAYER_1
  6
CONTINUOUS
 10
13493.300999999999
 20
15020.0
 30
0.0
  0
VERTEX
  5
26D9
  8
LAYER_1
  6
CONTINUOUS
 10
13500.0
 20
15020.0
 30
0.0
  0
VERTEX
  5
26DA
  8
LAYER_1
  6
CONTINUOUS
 10
13500.0
 20
17267.058000000001
 30
0.0
  0
VERTEX
  5
26DB
  8
LAYER_1
  6
CONTINUOUS
 10
13457.98
 20
17280.307000000001
 30
0.0
  0
VERTEX
  5
26DC
  8
LAYER_1
  6
CONTINUOUS
 10
13377.382
 20
17313.691999999999
 30
0.0
  0
VERTEX
  5
26DD
  8
LAYER_1
  6
CONTINUOUS
 10
13300.0
 20
17353.974999999999
 30
0.0
  0
VERTEX
  5
26DE
  8
LAYER_1
  6
CONTINUOUS
 10
13226.424000000001
 20
17400.848000000002
 30
0.0
  0
VERTEX
  5
26DF
  8
LAYER_1
  6
CONTINUOUS
 10
13157.212
 20
17453.955999999998
 30
0.0
  0
VERTEX
  5
26E0
  8
LAYER_1
  6
CONTINUOUS
 10
13092.893
 20
17512.893
 30
0.0
  0
VERTEX
  5
26E1
  8
LAYER_1
  6
CONTINUOUS
 10
13033.956
 20
17577.212
 30
0.0
  0
VERTEX
  5
26E2
  8
LAYER_1
  6
CONTINUOUS
 10
12980.848
 20
17646.423999999999
 30
0.0
  0
VERTEX
  5
26E3
  8
LAYER_1
  6
CONTINUOUS
 10
12933.975
 20
17720.0
 30
0.0
  0
VERTEX
  5
26E4
  8
LAYER_1
  6
CONTINUOUS
 10
12893.691999999999
 20
17797.382000000001
 30
0.0
  0
VERTEX
  5
26E5
  8
LAYER_1
  6
CONTINUOUS
 10
12860.307000000001
 20
17877.98
 30
0.0
  0
VERTEX
  5
26E6
  8
LAYER_1
  6
CONTINUOUS
 10
12834.074000000001
 20
17961.181
 30
0.0
  0
VERTEX
  5
26E7
  8
LAYER_1
  6
CONTINUOUS
 10
12815.191999999999
 20
18046.351999999999
 30
0.0
  0
VERTEX
  5
26E8
  8
LAYER_1
  6
CONTINUOUS
 10
12803.805
 20
18132.844000000001
 30
0.0
  0
VERTEX
  5
26E9
  8
LAYER_1
  6
CONTINUOUS
 10
12800.0
 20
18220.0
 30
0.0
  0
VERTEX
  5
26EA
  8
LAYER_1
  6
CONTINUOUS
 10
12803.805
 20
18307.155999999999
 30
0.0
  0
VERTEX
  5
26EB
  8
LAYER_1
  6
CONTINUOUS
 10
12815.191999999999
 20
18393.648000000001
 30
0.0
  0
VERTEX
  5
26EC
  8
LAYER_1
  6
CONTINUOUS
 10
12834.074000000001
 20
18478.819
 30
0.0
  0
VERTEX
  5
26ED
  8
LAYER_1
  6
CONTINUOUS
 10
12860.307000000001
 20
18562.02
 30
0.0
  0
VERTEX
  5
26EE
  8
LAYER_1
  6
CONTINUOUS
 10
12893.691999999999
 20
18642.617999999999
 30
0.0
  0
VERTEX
  5
26EF
  8
LAYER_1
  6
CONTINUOUS
 10
12933.975
 20
18720.0
 30
0.0
  0
VERTEX
  5
26F0
  8
LAYER_1
  6
CONTINUOUS
 10
12980.848
 20
18793.576000000001
 30
0.0
  0
VERTEX
  5
26F1
  8
LAYER_1
  6
CONTINUOUS
 10
13033.956
 20
18862.788
 30
0.0
  0
VERTEX
  5
26F2
  8
LAYER_1
  6
CONTINUOUS
 10
13092.893
 20
18927.107
 30
0.0
  0
VERTEX
  5
26F3
  8
LAYER_1
  6
CONTINUOUS
 10
13157.212
 20
18986.044000000002
 30
0.0
  0
VERTEX
  5
26F4
  8
LAYER_1
  6
CONTINUOUS
 10
13226.424000000001
 20
19039.151999999998
 30
0.0
  0
VERTEX
  5
26F5
  8
LAYER_1
  6
CONTINUOUS
 10
13300.0
 20
19086.025000000001
 30
0.0
  0
VERTEX
  5
26F6
  8
LAYER_1
  6
CONTINUOUS
 10
13377.382
 20
19126.308000000001
 30
0.0
  0
VERTEX
  5
26F7
  8
LAYER_1
  6
CONTINUOUS
 10
13457.98
 20
19159.692999999999
 30
0.0
  0
VERTEX
  5
26F8
  8
LAYER_1
  6
CONTINUOUS
 10
13541.181
 20
19185.925999999999
 30
0.0
  0
VERTEX
  5
26F9
  8
LAYER_1
  6
CONTINUOUS
 10
13626.352000000001
 20
19204.808000000001
 30
0.0
  0
SEQEND
  5
26FA
  8
LAYER_1
  6
CONTINUOUS
  0
POLYLINE
  5
52E
  8
LAYER_1
  6
CONTINUOUS
 66
     1
 10
0.0
 20
0.0
 30
0.0
 70
     1
  0
VERTEX
  5
26FB
  8
LAYER_1
  6
CONTINUOUS
 10
14806.700000000001
 20
13460.0
 30
0.0
  0
VERTEX
  5
26FC
  8
LAYER_1
  6
CONTINUOUS
 10
14806.700000000001
 20
13520.0
 30
0.0
  0
VERTEX
  5
26FD
  8
LAYER_1
  6
CONTINUOUS
 10
15550.0
 20
13520.0
 30
0.0
  0
VERTEX
  5
26FE
  8
LAYER_1
  6
CONTINUOUS
 10
15550.0
 20
12444.842000000001
 30
0.0
  0
VERTEX
  5
26FF
  8
LAYER_1
  6
CONTINUOUS
 10
16900.0
 20
12135.356
 30
0.0
  0
VERTEX
  5
2700
  8
LAYER_1
  6
CONTINUOUS
 10
16900.0
 20
11503.09
 30
0.0
  0
VERTEX
  5
2701
  8
LAYER_1
  6
CONTINUOUS
 10
14895.0
 20
12005.0
 30
0.0
  0
VERTEX
  5
2702
  8
LAYER_1
  6
CONTINUOUS
 10
14893.299999999999
 20
12005.0
 30
0.0
  0
VERTEX
  5
2703
  8
LAYER_1
  6
CONTINUOUS
 10
14893.299999999999
 20
12035.0
 30
0.0
  0
VERTEX
  5
2704
  8
LAYER_1
  6
CONTINUOUS
 10
14806.700000000001
 20
12060.0
 30
0.0
  0
VERTEX
  5
2705
  8
LAYER_1
  6
CONTINUOUS
 10
14806.700000000001
 20
12000.0
 30
0.0
  0
VERTEX
  5
2706
  8
LAYER_1
  6
CONTINUOUS
 10
14805.0
 20
12000.0
 30
0.0
  0
VERTEX
  5
2707
  8
LAYER_1
  6
CONTINUOUS
 10
16900.0
 20
9868.1280000000024
 30
0.0
  0
VERTEX
  5
2708
  8
LAYER_1
  6
CONTINUOUS
 10
16900.0
 20
7953.9750000000013
 30
0.0
  0
VERTEX
  5
2709
  8
LAYER_1
  6
CONTINUOUS
 10
16826.423999999999
 20
8000.8480000000009
 30
0.0
  0
VERTEX
  5
270A
  8
LAYER_1
  6
CONTINUOUS
 10
16757.212
 20
8053.956000000001
 30
0.0
  0
VERTEX
  5
270B
  8
LAYER_1
  6
CONTINUOUS
 10
16692.893
 20
8112.8929999999991
 30
0.0
  0
VERTEX
  5
270C
  8
LAYER_1
  6
CONTINUOUS
 10
16633.955999999998
 20
8177.2120000000004
 30
0.0
  0
VERTEX
  5
270D
  8
LAYER_1
  6
CONTINUOUS
 10
16580.848000000002
 20
8246.4240000000009
 30
0.0
  0
VERTEX
  5
270E
  8
LAYER_1
  6
CONTINUOUS
 10
16533.974999999999
 20
8320.0
 30
0.0
  0
VERTEX
  5
270F
  8
LAYER_1
  6
CONTINUOUS
 10
16493.691999999999
 20
8397.3819999999996
 30
0.0
  0
VERTEX
  5
2710
  8
LAYER_1
  6
CONTINUOUS
 10
16460.307000000001
 20
8477.9799999999996
 30
0.0
  0
VERTEX
  5
2711
  8
LAYER_1
  6
CONTINUOUS
 10
16434.074000000001
 20
8561.1810000000005
 30
0.0
  0
VERTEX
  5
2712
  8
LAYER_1
  6
CONTINUOUS
 10
16415.191999999999
 20
8646.3520000000008
 30
0.0
  0
VERTEX
  5
2713
  8
LAYER_1
  6
CONTINUOUS
 10
16403.805
 20
8732.8439999999973
 30
0.0
  0
VERTEX
  5
2714
  8
LAYER_1
  6
CONTINUOUS
 10
16400.0
 20
8820.0
 30
0.0
  0
VERTEX
  5
2715
  8
LAYER_1
  6
CONTINUOUS
 10
16403.805
 20
8907.1560000000009
 30
0.0
  0
VERTEX
  5
2716
  8
LAYER_1
  6
CONTINUOUS
 10
16415.191999999999
 20
8993.6479999999974
 30
0.0
  0
VERTEX
  5
2717
  8
LAYER_1
  6
CONTINUOUS
 10
16434.074000000001
 20
9078.8190000000013
 30
0.0
  0
VERTEX
  5
2718
  8
LAYER_1
  6
CONTINUOUS
 10
16460.307000000001
 20
9162.0200000000004
 30
0.0
  0
VERTEX
  5
2719
  8
LAYER_1
  6
CONTINUOUS
 10
16493.691999999999
 20
9242.6180000000004
 30
0.0
  0
VERTEX
  5
271A
  8
LAYER_1
  6
CONTINUOUS
 10
16533.974999999999
 20
9320.0
 30
0.0
  0
VERTEX
  5
271B
  8
LAYER_1
  6
CONTINUOUS
 10
16580.848000000002
 20
9393.5759999999991
 30
0.0
  0
VERTEX
  5
271C
  8
LAYER_1
  6
CONTINUOUS
 10
16590.239000000001
 20
9405.8150000000023
 30
0.0
  0
VERTEX
  5
271D
  8
LAYER_1
  6
CONTINUOUS
 10
14200.0
 20
12000.0
 30
0.0
  0
VERTEX
  5
271E
  8
LAYER_1
  6
CONTINUOUS
 10
14193.300999999999
 20
12000.0
 30
0.0
  0
VERTEX
  5
271F
  8
LAYER_1
  6
CONTINUOUS
 10
14193.300999999999
 20
12035.0
 30
0.0
  0
VERTEX
  5
2720
  8
LAYER_1
  6
CONTINUOUS
 10
14150.0
 20
12060.0
 30
0.0
  0
VERTEX
  5
2721
  8
LAYER_1
  6
CONTINUOUS
 10
14106.699000000001
 20
12035.0
 30
0.0
  0
VERTEX
  5
2722
  8
LAYER_1
  6
CONTINUOUS
 10
14106.699000000001
 20
12000.0
 30
0.0
  0
VERTEX
  5
2723
  8
LAYER_1
  6
CONTINUOUS
 10
14100.0
 20
12000.0
 30
0.0
  0
VERTEX
  5
2724
  8
LAYER_1
  6
CONTINUOUS
 10
14100.0
 20
9772.9419999999991
 30
0.0
  0
VERTEX
  5
2725
  8
LAYER_1
  6
CONTINUOUS
 10
14142.02
 20
9759.6929999999993
 30
0.0
  0
VERTEX
  5
2726
  8
LAYER_1
  6
CONTINUOUS
 10
14222.618
 20
9726.3080000000027
 30
0.0
  0
VERTEX
  5
2727
  8
LAYER_1
  6
CONTINUOUS
 10
14300.0
 20
9686.0249999999996
 30
0.0
  0
VERTEX
  5
2728
  8
LAYER_1
  6
CONTINUOUS
 10
14373.575999999999
 20
9639.1520000000019
 30
0.0
  0
VERTEX
  5
2729
  8
LAYER_1
  6
CONTINUOUS
 10
14442.788
 20
9586.0439999999999
 30
0.0
  0
VERTEX
  5
272A
  8
LAYER_1
  6
CONTINUOUS
 10
14507.107
 20
9527.1069999999982
 30
0.0
  0
VERTEX
  5
272B
  8
LAYER_1
  6
CONTINUOUS
 10
14566.044
 20
9462.7880000000005
 30
0.0
  0
VERTEX
  5
272C
  8
LAYER_1
  6
CONTINUOUS
 10
14619.152
 20
9393.5759999999991
 30
0.0
  0
VERTEX
  5
272D
  8
LAYER_1
  6
CONTINUOUS
 10
14666.025
 20
9320.0
 30
0.0
  0
VERTEX
  5
272E
  8
LAYER_1
  6
CONTINUOUS
 10
14706.308000000001
 20
9242.6180000000004
 30
0.0
  0
VERTEX
  5
272F
  8
LAYER_1
  6
CONTINUOUS
 10
14739.692999999999
 20
9162.0200000000004
 30
0.0
  0
VERTEX
  5
2730
  8
LAYER_1
  6
CONTINUOUS
 10
14765.925999999999
 20
9078.8190000000013
 30
0.0
  0
VERTEX
  5
2731
  8
LAYER_1
  6
CONTINUOUS
 10
14784.808000000001
 20
8993.6479999999974
 30
0.0
  0
VERTEX
  5
2732
  8
LAYER_1
  6
CONTINUOUS
 10
14796.195
 20
8907.1560000000009
 30
0.0
  0
VERTEX
  5
2733
  8
LAYER_1
  6
CONTINUOUS
 10
14800.0
 20
8820.0
 30
0.0
  0
VERTEX
  5
2734
  8
LAYER_1
  6
CONTINUOUS
 10
14796.195
 20
8732.8439999999973
 30
0.0
  0
VERTEX
  5
2735
  8
LAYER_1
  6
CONTINUOUS
 10
14784.808000000001
 20
8646.3520000000008
 30
0.0
  0
VERTEX
  5
2736
  8
LAYER_1
  6
CONTINUOUS
 10
14765.925999999999
 20
8561.1810000000005
 30
0.0
  0
VERTEX
  5
2737
  8
LAYER_1
  6
CONTINUOUS
 10
14739.692999999999
 20
8477.9799999999996
 30
0.0
  0
VERTEX
  5
2738
  8
LAYER_1
  6
CONTINUOUS
 10
14706.308000000001
 20
8397.3819999999996
 30
0.0
  0
VERTEX
  5
2739
  8
LAYER_1
  6
CONTINUOUS
 10
14666.025
 20
8320.0
 30
0.0
  0
VERTEX
  5
273A
  8
LAYER_1
  6
CONTINUOUS
 10
14619.152
 20
8246.4240000000009
 30
0.0
  0
VERTEX
  5
273B
  8
LAYER_1
  6
CONTINUOUS
 10
14566.044
 20
8177.2120000000004
 30
0.0
  0
VERTEX
  5
273C
  8
LAYER_1
  6
CONTINUOUS
 10
14507.107
 20
8112.8929999999991
 30
0.0
  0
VERTEX
  5
273D
  8
LAYER_1
  6
CONTINUOUS
 10
14442.788
 20
8053.956000000001
 30
0.0
  0
VERTEX
  5
273E
  8
LAYER_1
  6
CONTINUOUS
 10
14373.575999999999
 20
8000.8480000000009
 30
0.0
  0
VERTEX
  5
273F
  8
LAYER_1
  6
CONTINUOUS
 10
14300.0
 20
7953.9750000000013
 30
0.0
  0
VERTEX
  5
2740
  8
LAYER_1
  6
CONTINUOUS
 10
14222.618
 20
7913.6920000000009
 30
0.0
  0
VERTEX
  5
2741
  8
LAYER_1
  6
CONTINUOUS
 10
14142.02
 20
7880.3070000000007
 30
0.0
  0
VERTEX
  5
2742
  8
LAYER_1
  6
CONTINUOUS
 10
14058.819
 20
7854.0739999999996
 30
0.0
  0
VERTEX
  5
2743
  8
LAYER_1
  6
CONTINUOUS
 10
13973.647999999999
 20
7835.1920000000009
 30
0.0
  0
VERTEX
  5
2744
  8
LAYER_1
  6
CONTINUOUS
 10
13887.156000000001
 20
7823.8050000000003
 30
0.0
  0
VERTEX
  5
2745
  8
LAYER_1
  6
CONTINUOUS
 10
13800.0
 20
7820.0
 30
0.0
  0
VERTEX
  5
2746
  8
LAYER_1
  6
CONTINUOUS
 10
13800.0
 20
13520.0
 30
0.0
  0
VERTEX
  5
2747
  8
LAYER_1
  6
CONTINUOUS
 10
14150.0
 20
13520.0
 30
0.0
  0
VERTEX
  5
2748
  8
LAYER_1
  6
CONTINUOUS
 10
14150.0
 20
13460.0
 30
0.0
  0
VERTEX
  5
2749
  8
LAYER_1
  6
CONTINUOUS
 10
14106.699000000001
 20
13435.0
 30
0.0
  0
VERTEX
  5
274A
  8
LAYER_1
  6
CONTINUOUS
 10
14106.699000000001
 20
13385.0
 30
0.0
  0
VERTEX
  5
274B
  8
LAYER_1
  6
CONTINUOUS
 10
14150.0
 20
13360.0
 30
0.0
  0
VERTEX
  5
274C
  8
LAYER_1
  6
CONTINUOUS
 10
14150.0
 20
13260.0
 30
0.0
  0
VERTEX
  5
274D
  8
LAYER_1
  6
CONTINUOUS
 10
14106.699000000001
 20
13235.0
 30
0.0
  0
VERTEX
  5
274E
  8
LAYER_1
  6
CONTINUOUS
 10
14106.699000000001
 20
13185.0
 30
0.0
  0
VERTEX
  5
274F
  8
LAYER_1
  6
CONTINUOUS
 10
14150.0
 20
13160.0
 30
0.0
  0
VERTEX
  5
2750
  8
LAYER_1
  6
CONTINUOUS
 10
14150.0
 20
13060.0
 30
0.0
  0
VERTEX
  5
2751
  8
LAYER_1
  6
CONTINUOUS
 10
14106.699000000001
 20
13035.0
 30
0.0
  0
VERTEX
  5
2752
  8
LAYER_1
  6
CONTINUOUS
 10
14106.699000000001
 20
12985.0
 30
0.0
  0
VERTEX
  5
2753
  8
LAYER_1
  6
CONTINUOUS
 10
14150.0
 20
12960.0
 30
0.0
  0
VERTEX
  5
2754
  8
LAYER_1
  6
CONTINUOUS
 10
14150.0
 20
12860.0
 30
0.0
  0
VERTEX
  5
2755
  8
LAYER_1
  6
CONTINUOUS
 10
14106.699000000001
 20
12835.0
 30
0.0
  0
VERTEX
  5
2756
  8
LAYER_1
  6
CONTINUOUS
 10
14106.699000000001
 20
12785.0
 30
0.0
  0
VERTEX
  5
2757
  8
LAYER_1
  6
CONTINUOUS
 10
14150.0
 20
12760.0
 30
0.0
  0
VERTEX
  5
2758
  8
LAYER_1
  6
CONTINUOUS
 10
14150.0
 20
12660.0
 30
0.0
  0
VERTEX
  5
2759
  8
LAYER_1
  6
CONTINUOUS
 10
14106.699000000001
 20
12635.0
 30
0.0
  0
VERTEX
  5
275A
  8
LAYER_1
  6
CONTINUOUS
 10
14106.699000000001
 20
12585.0
 30
0.0
  0
VERTEX
  5
275B
  8
LAYER_1
  6
CONTINUOUS
 10
14150.0
 20
12560.0
 30
0.0
  0
VERTEX
  5
275C
  8
LAYER_1
  6
CONTINUOUS
 10
14150.0
 20
12460.0
 30
0.0
  0
VERTEX
  5
275D
  8
LAYER_1
  6
CONTINUOUS
 10
14106.699000000001
 20
12435.0
 30
0.0
  0
VERTEX
  5
275E
  8
LAYER_1
  6
CONTINUOUS
 10
14106.699000000001
 20
12385.0
 30
0.0
  0
VERTEX
  5
275F
  8
LAYER_1
  6
CONTINUOUS
 10
14150.0
 20
12360.0
 30
0.0
  0
VERTEX
  5
2760
  8
LAYER_1
  6
CONTINUOUS
 10
14150.0
 20
12260.0
 30
0.0
  0
VERTEX
  5
2761
  8
LAYER_1
  6
CONTINUOUS
 10
14106.699000000001
 20
12235.0
 30
0.0
  0
VERTEX
  5
2762
  8
LAYER_1
  6
CONTINUOUS
 10
14106.699000000001
 20
12185.0
 30
0.0
  0
VERTEX
  5
2763
  8
LAYER_1
  6
CONTINUOUS
 10
14150.0
 20
12160.0
 30
0.0
  0
VERTEX
  5
2764
  8
LAYER_1
  6
CONTINUOUS
 10
14193.300999999999
 20
12185.0
 30
0.0
  0
VERTEX
  5
2765
  8
LAYER_1
  6
CONTINUOUS
 10
14193.300999999999
 20
12235.0
 30
0.0
  0
VERTEX
  5
2766
  8
LAYER_1
  6
CONTINUOUS
 10
14150.0
 20
12260.0
 30
0.0
  0
VERTEX
  5
2767
  8
LAYER_1
  6
CONTINUOUS
 10
14150.0
 20
12360.0
 30
0.0
  0
VERTEX
  5
2768
  8
LAYER_1
  6
CONTINUOUS
 10
14193.300999999999
 20
12385.0
 30
0.0
  0
VERTEX
  5
2769
  8
LAYER_1
  6
CONTINUOUS
 10
14193.300999999999
 20
12435.0
 30
0.0
  0
VERTEX
  5
276A
  8
LAYER_1
  6
CONTINUOUS
 10
14150.0
 20
12460.0
 30
0.0
  0
VERTEX
  5
276B
  8
LAYER_1
  6
CONTINUOUS
 10
14150.0
 20
12560.0
 30
0.0
  0
VERTEX
  5
276C
  8
LAYER_1
  6
CONTINUOUS
 10
14150.0
 20
12560.0
 30
0.0
  0
VERTEX
  5
276D
  8
LAYER_1
  6
CONTINUOUS
 10
14193.300999999999
 20
12585.0
 30
0.0
  0
VERTEX
  5
276E
  8
LAYER_1
  6
CONTINUOUS
 10
14193.300999999999
 20
12635.0
 30
0.0
  0
VERTEX
  5
276F
  8
LAYER_1
  6
CONTINUOUS
 10
14150.0
 20
12660.0
 30
0.0
  0
VERTEX
  5
2770
  8
LAYER_1
  6
CONTINUOUS
 10
14150.0
 20
12760.0
 30
0.0
  0
VERTEX
  5
2771
  8
LAYER_1
  6
CONTINUOUS
 10
14150.0
 20
12760.0
 30
0.0
  0
VERTEX
  5
2772
  8
LAYER_1
  6
CONTINUOUS
 10
14193.300999999999
 20
12785.0
 30
0.0
  0
VERTEX
  5
2773
  8
LAYER_1
  6
CONTINUOUS
 10
14193.300999999999
 20
12835.0
 30
0.0
  0
VERTEX
  5
2774
  8
LAYER_1
  6
CONTINUOUS
 10
14150.0
 20
12860.0
 30
0.0
  0
VERTEX
  5
2775
  8
LAYER_1
  6
CONTINUOUS
 10
14150.0
 20
12960.0
 30
0.0
  0
VERTEX
  5
2776
  8
LAYER_1
  6
CONTINUOUS
 10
14193.300999999999
 20
12985.0
 30
0.0
  0
VERTEX
  5
2777
  8
LAYER_1
  6
CONTINUOUS
 10
14193.300999999999
 20
13035.0
 30
0.0
  0
VERTEX
  5
2778
  8
LAYER_1
  6
CONTINUOUS
 10
14150.0
 20
13060.0
 30
0.0
  0
VERTEX
  5
2779
  8
LAYER_1
  6
CONTINUOUS
 10
14150.0
 20
13160.0
 30
0.0
  0
VERTEX
  5
277A
  8
LAYER_1
  6
CONTINUOUS
 10
14150.0
 20
13160.0
 30
0.0
  0
VERTEX
  5
277B
  8
LAYER_1
  6
CONTINUOUS
 10
14193.300999999999
 20
13185.0
 30
0.0
  0
VERTEX
  5
277C
  8
LAYER_1
  6
CONTINUOUS
 10
14193.300999999999
 20
13235.0
 30
0.0
  0
VERTEX
  5
277D
  8
LAYER_1
  6
CONTINUOUS
 10
14150.0
 20
13260.0
 30
0.0
  0
VERTEX
  5
277E
  8
LAYER_1
  6
CONTINUOUS
 10
14150.0
 20
13360.0
 30
0.0
  0
VERTEX
  5
277F
  8
LAYER_1
  6
CONTINUOUS
 10
14150.0
 20
13360.0
 30
0.0
  0
VERTEX
  5
2780
  8
LAYER_1
  6
CONTINUOUS
 10
14193.300999999999
 20
13385.0
 30
0.0
  0
VERTEX
  5
2781
  8
LAYER_1
  6
CONTINUOUS
 10
14193.300999999999
 20
13435.0
 30
0.0
  0
VERTEX
  5
2782
  8
LAYER_1
  6
CONTINUOUS
 10
14150.0
 20
13460.0
 30
0.0
  0
VERTEX
  5
2783
  8
LAYER_1
  6
CONTINUOUS
 10
14150.0
 20
13520.0
 30
0.0
  0
VERTEX
  5
2784
  8
LAYER_1
  6
CONTINUOUS
 10
14806.700000000001
 20
13520.0
 30
0.0
  0
VERTEX
  5
2785
  8
LAYER_1
  6
CONTINUOUS
 10
14806.700000000001
 20
13460.0
 30
0.0
  0
VERTEX
  5
2786
  8
LAYER_1
  6
CONTINUOUS
 10
14806.700000000001
 20
13360.0
 30
0.0
  0
VERTEX
  5
2787
  8
LAYER_1
  6
CONTINUOUS
 10
14806.700000000001
 20
13260.0
 30
0.0
  0
VERTEX
  5
2788
  8
LAYER_1
  6
CONTINUOUS
 10
14806.700000000001
 20
13160.0
 30
0.0
  0
VERTEX
  5
2789
  8
LAYER_1
  6
CONTINUOUS
 10
14806.700000000001
 20
13160.0
 30
0.0
  0
VERTEX
  5
278A
  8
LAYER_1
  6
CONTINUOUS
 10
14806.700000000001
 20
13060.0
 30
0.0
  0
VERTEX
  5
278B
  8
LAYER_1
  6
CONTINUOUS
 10
14806.700000000001
 20
12960.0
 30
0.0
  0
VERTEX
  5
278C
  8
LAYER_1
  6
CONTINUOUS
 10
14806.700000000001
 20
12960.0
 30
0.0
  0
VERTEX
  5
278D
  8
LAYER_1
  6
CONTINUOUS
 10
14806.700000000001
 20
12860.0
 30
0.0
  0
VERTEX
  5
278E
  8
LAYER_1
  6
CONTINUOUS
 10
14806.700000000001
 20
12760.0
 30
0.0
  0
VERTEX
  5
278F
  8
LAYER_1
  6
CONTINUOUS
 10
14806.700000000001
 20
12760.0
 30
0.0
  0
VERTEX
  5
2790
  8
LAYER_1
  6
CONTINUOUS
 10
14806.700000000001
 20
12660.0
 30
0.0
  0
VERTEX
  5
2791
  8
LAYER_1
  6
CONTINUOUS
 10
14806.700000000001
 20
12560.0
 30
0.0
  0
VERTEX
  5
2792
  8
LAYER_1
  6
CONTINUOUS
 10
14806.700000000001
 20
12460.0
 30
0.0
  0
VERTEX
  5
2793
  8
LAYER_1
  6
CONTINUOUS
 10
14806.700000000001
 20
12360.0
 30
0.0
  0
VERTEX
  5
2794
  8
LAYER_1
  6
CONTINUOUS
 10
14806.700000000001
 20
12260.0
 30
0.0
  0
VERTEX
  5
2795
  8
LAYER_1
  6
CONTINUOUS
 10
14806.700000000001
 20
12160.0
 30
0.0
  0
VERTEX
  5
2796
  8
LAYER_1
  6
CONTINUOUS
 10
14893.299999999999
 20
12185.0
 30
0.0
  0
VERTEX
  5
2797
  8
LAYER_1
  6
CONTINUOUS
 10
14893.299999999999
 20
12235.0
 30
0.0
  0
VERTEX
  5
2798
  8
LAYER_1
  6
CONTINUOUS
 10
14806.700000000001
 20
12260.0
 30
0.0
  0
VERTEX
  5
2799
  8
LAYER_1
  6
CONTINUOUS
 10
14806.700000000001
 20
12360.0
 30
0.0
  0
VERTEX
  5
279A
  8
LAYER_1
  6
CONTINUOUS
 10
14893.299999999999
 20
12385.0
 30
0.0
  0
VERTEX
  5
279B
  8
LAYER_1
  6
CONTINUOUS
 10
14893.299999999999
 20
12435.0
 30
0.0
  0
VERTEX
  5
279C
  8
LAYER_1
  6
CONTINUOUS
 10
14806.700000000001
 20
12460.0
 30
0.0
  0
VERTEX
  5
279D
  8
LAYER_1
  6
CONTINUOUS
 10
14806.700000000001
 20
12560.0
 30
0.0
  0
VERTEX
  5
279E
  8
LAYER_1
  6
CONTINUOUS
 10
14893.299999999999
 20
12585.0
 30
0.0
  0
VERTEX
  5
279F
  8
LAYER_1
  6
CONTINUOUS
 10
14893.299999999999
 20
12635.0
 30
0.0
  0
VERTEX
  5
27A0
  8
LAYER_1
  6
CONTINUOUS
 10
14806.700000000001
 20
12660.0
 30
0.0
  0
VERTEX
  5
27A1
  8
LAYER_1
  6
CONTINUOUS
 10
14806.700000000001
 20
12760.0
 30
0.0
  0
VERTEX
  5
27A2
  8
LAYER_1
  6
CONTINUOUS
 10
14893.299999999999
 20
12785.0
 30
0.0
  0
VERTEX
  5
27A3
  8
LAYER_1
  6
CONTINUOUS
 10
14893.299999999999
 20
12835.0
 30
0.0
  0
VERTEX
  5
27A4
  8
LAYER_1
  6
CONTINUOUS
 10
14806.700000000001
 20
12860.0
 30
0.0
  0
VERTEX
  5
27A5
  8
LAYER_1
  6
CONTINUOUS
 10
14806.700000000001
 20
12960.0
 30
0.0
  0
VERTEX
  5
27A6
  8
LAYER_1
  6
CONTINUOUS
 10
14893.299999999999
 20
12985.0
 30
0.0
  0
VERTEX
  5
27A7
  8
LAYER_1
  6
CONTINUOUS
 10
14893.299999999999
 20
13035.0
 30
0.0
  0
VERTEX
  5
27A8
  8
LAYER_1
  6
CONTINUOUS
 10
14806.700000000001
 20
13060.0
 30
0.0
  0
VERTEX
  5
27A9
  8
LAYER_1
  6
CONTINUOUS
 10
14806.700000000001
 20
13160.0
 30
0.0
  0
VERTEX
  5
27AA
  8
LAYER_1
  6
CONTINUOUS
 10
14893.299999999999
 20
13185.0
 30
0.0
  0
VERTEX
  5
27AB
  8
LAYER_1
  6
CONTINUOUS
 10
14893.299999999999
 20
13235.0
 30
0.0
  0
VERTEX
  5
27AC
  8
LAYER_1
  6
CONTINUOUS
 10
14806.700000000001
 20
13260.0
 30
0.0
  0
VERTEX
  5
27AD
  8
LAYER_1
  6
CONTINUOUS
 10
14806.700000000001
 20
13360.0
 30
0.0
  0
VERTEX
  5
27AE
  8
LAYER_1
  6
CONTINUOUS
 10
14893.299999999999
 20
13385.0
 30
0.0
  0
VERTEX
  5
27AF
  8
LAYER_1
  6
CONTINUOUS
 10
14893.299999999999
 20
13435.0
 30
0.0
  0
VERTEX
  5
27B0
  8
LAYER_1
  6
CONTINUOUS
 10
14806.700000000001
 20
13460.0
 30
0.0
  0
SEQEND
  5
27B1
  8
LAYER_1
  6
CONTINUOUS
  0
POLYLINE
  5
52F
  8
LAYER_1
  6
CONTINUOUS
 66
     1
 10
0.0
 20
0.0
 30
0.0
 70
     1
  0
VERTEX
  5
27B2
  8
LAYER_1
  6
CONTINUOUS
 10
18826.351999999999
 20
12984.808000000001
 30
0.0
  0
VERTEX
  5
27B3
  8
LAYER_1
  6
CONTINUOUS
 10
18912.844000000001
 20
12996.195
 30
0.0
  0
VERTEX
  5
27B4
  8
LAYER_1
  6
CONTINUOUS
 10
19000.0
 20
13000.0
 30
0.0
  0
VERTEX
  5
27B5
  8
LAYER_1
  6
CONTINUOUS
 10
19087.155999999999
 20
12996.195
 30
0.0
  0
VERTEX
  5
27B6
  8
LAYER_1
  6
CONTINUOUS
 10
19173.648000000001
 20
12984.808000000001
 30
0.0
  0
VERTEX
  5
27B7
  8
LAYER_1
  6
CONTINUOUS
 10
19258.819
 20
12965.925999999999
 30
0.0
  0
VERTEX
  5
27B8
  8
LAYER_1
  6
CONTINUOUS
 10
19342.02
 20
12939.692999999999
 30
0.0
  0
VERTEX
  5
27B9
  8
LAYER_1
  6
CONTINUOUS
 10
19422.617999999999
 20
12906.308000000001
 30
0.0
  0
VERTEX
  5
27BA
  8
LAYER_1
  6
CONTINUOUS
 10
19500.0
 20
12866.025
 30
0.0
  0
VERTEX
  5
27BB
  8
LAYER_1
  6
CONTINUOUS
 10
19573.576000000001
 20
12819.152
 30
0.0
  0
VERTEX
  5
27BC
  8
LAYER_1
  6
CONTINUOUS
 10
19642.788
 20
12766.044
 30
0.0
  0
VERTEX
  5
27BD
  8
LAYER_1
  6
CONTINUOUS
 10
19707.107
 20
12707.107
 30
0.0
  0
VERTEX
  5
27BE
  8
LAYER_1
  6
CONTINUOUS
 10
19766.044000000002
 20
12642.788
 30
0.0
  0
VERTEX
  5
27BF
  8
LAYER_1
  6
CONTINUOUS
 10
19819.151999999998
 20
12573.575999999999
 30
0.0
  0
VERTEX
  5
27C0
  8
LAYER_1
  6
CONTINUOUS
 10
19866.025000000001
 20
12500.0
 30
0.0
  0
VERTEX
  5
27C1
  8
LAYER_1
  6
CONTINUOUS
 10
19906.308000000001
 20
12422.618
 30
0.0
  0
VERTEX
  5
27C2
  8
LAYER_1
  6
CONTINUOUS
 10
19939.692999999999
 20
12342.02
 30
0.0
  0
VERTEX
  5
27C3
  8
LAYER_1
  6
CONTINUOUS
 10
19965.925999999999
 20
12258.819
 30
0.0
  0
VERTEX
  5
27C4
  8
LAYER_1
  6
CONTINUOUS
 10
19984.808000000001
 20
12173.647999999999
 30
0.0
  0
VERTEX
  5
27C5
  8
LAYER_1
  6
CONTINUOUS
 10
19996.195
 20
12087.156000000001
 30
0.0
  0
VERTEX
  5
27C6
  8
LAYER_1
  6
CONTINUOUS
 10
20000.0
 20
12000.0
 30
0.0
  0
VERTEX
  5
27C7
  8
LAYER_1
  6
CONTINUOUS
 10
19996.195
 20
11912.843999999999
 30
0.0
  0
VERTEX
  5
27C8
  8
LAYER_1
  6
CONTINUOUS
 10
19984.808000000001
 20
11826.352000000001
 30
0.0
  0
VERTEX
  5
27C9
  8
LAYER_1
  6
CONTINUOUS
 10
19965.925999999999
 20
11741.181
 30
0.0
  0
VERTEX
  5
27CA
  8
LAYER_1
  6
CONTINUOUS
 10
19939.692999999999
 20
11657.98
 30
0.0
  0
VERTEX
  5
27CB
  8
LAYER_1
  6
CONTINUOUS
 10
19906.308000000001
 20
11577.382
 30
0.0
  0
VERTEX
  5
27CC
  8
LAYER_1
  6
CONTINUOUS
 10
19866.025000000001
 20
11500.0
 30
0.0
  0
VERTEX
  5
27CD
  8
LAYER_1
  6
CONTINUOUS
 10
19819.151999999998
 20
11426.424000000001
 30
0.0
  0
VERTEX
  5
27CE
  8
LAYER_1
  6
CONTINUOUS
 10
19766.044000000002
 20
11357.212
 30
0.0
  0
VERTEX
  5
27CF
  8
LAYER_1
  6
CONTINUOUS
 10
19707.107
 20
11292.893
 30
0.0
  0
VERTEX
  5
27D0
  8
LAYER_1
  6
CONTINUOUS
 10
19642.788
 20
11233.956
 30
0.0
  0
VERTEX
  5
27D1
  8
LAYER_1
  6
CONTINUOUS
 10
19573.576000000001
 20
11180.848
 30
0.0
  0
VERTEX
  5
27D2
  8
LAYER_1
  6
CONTINUOUS
 10
19500.0
 20
11133.975
 30
0.0
  0
VERTEX
  5
27D3
  8
LAYER_1
  6
CONTINUOUS
 10
19422.617999999999
 20
11093.691999999999
 30
0.0
  0
VERTEX
  5
27D4
  8
LAYER_1
  6
CONTINUOUS
 10
19342.02
 20
11060.307000000001
 30
0.0
  0
VERTEX
  5
27D5
  8
LAYER_1
  6
CONTINUOUS
 10
19258.819
 20
11034.074000000001
 30
0.0
  0
VERTEX
  5
27D6
  8
LAYER_1
  6
CONTINUOUS
 10
19173.648000000001
 20
11015.191999999999
 30
0.0
  0
VERTEX
  5
27D7
  8
LAYER_1
  6
CONTINUOUS
 10
19087.155999999999
 20
11003.805
 30
0.0
  0
VERTEX
  5
27D8
  8
LAYER_1
  6
CONTINUOUS
 10
19000.0
 20
11000.0
 30
0.0
  0
VERTEX
  5
27D9
  8
LAYER_1
  6
CONTINUOUS
 10
18912.844000000001
 20
11003.805
 30
0.0
  0
VERTEX
  5
27DA
  8
LAYER_1
  6
CONTINUOUS
 10
18826.351999999999
 20
11015.191999999999
 30
0.0
  0
VERTEX
  5
27DB
  8
LAYER_1
  6
CONTINUOUS
 10
18741.181
 20
11034.074000000001
 30
0.0
  0
VERTEX
  5
27DC
  8
LAYER_1
  6
CONTINUOUS
 10
18657.98
 20
11060.307000000001
 30
0.0
  0
VERTEX
  5
27DD
  8
LAYER_1
  6
CONTINUOUS
 10
18641.453000000001
 20
11067.153
 30
0.0
  0
VERTEX
  5
27DE
  8
LAYER_1
  6
CONTINUOUS
 10
16900.0
 20
11503.09
 30
0.0
  0
VERTEX
  5
27DF
  8
LAYER_1
  6
CONTINUOUS
 10
16900.0
 20
12135.356
 30
0.0
  0
VERTEX
  5
27E0
  8
LAYER_1
  6
CONTINUOUS
 10
18007.950000000001
 20
11881.359
 30
0.0
  0
VERTEX
  5
27E1
  8
LAYER_1
  6
CONTINUOUS
 10
18003.805
 20
11912.843999999999
 30
0.0
  0
VERTEX
  5
27E2
  8
LAYER_1
  6
CONTINUOUS
 10
18000.0
 20
12000.0
 30
0.0
  0
VERTEX
  5
27E3
  8
LAYER_1
  6
CONTINUOUS
 10
18003.805
 20
12087.156000000001
 30
0.0
  0
VERTEX
  5
27E4
  8
LAYER_1
  6
CONTINUOUS
 10
18015.191999999999
 20
12173.647999999999
 30
0.0
  0
VERTEX
  5
27E5
  8
LAYER_1
  6
CONTINUOUS
 10
18034.074000000001
 20
12258.819
 30
0.0
  0
VERTEX
  5
27E6
  8
LAYER_1
  6
CONTINUOUS
 10
18060.307000000001
 20
12342.02
 30
0.0
  0
VERTEX
  5
27E7
  8
LAYER_1
  6
CONTINUOUS
 10
18093.691999999999
 20
12422.618
 30
0.0
  0
VERTEX
  5
27E8
  8
LAYER_1
  6
CONTINUOUS
 10
18133.974999999999
 20
12500.0
 30
0.0
  0
VERTEX
  5
27E9
  8
LAYER_1
  6
CONTINUOUS
 10
18180.848000000002
 20
12573.575999999999
 30
0.0
  0
VERTEX
  5
27EA
  8
LAYER_1
  6
CONTINUOUS
 10
18233.955999999998
 20
12642.788
 30
0.0
  0
VERTEX
  5
27EB
  8
LAYER_1
  6
CONTINUOUS
 10
18292.893
 20
12707.107
 30
0.0
  0
VERTEX
  5
27EC
  8
LAYER_1
  6
CONTINUOUS
 10
18357.212
 20
12766.044
 30
0.0
  0
VERTEX
  5
27ED
  8
LAYER_1
  6
CONTINUOUS
 10
18426.423999999999
 20
12819.152
 30
0.0
  0
VERTEX
  5
27EE
  8
LAYER_1
  6
CONTINUOUS
 10
18500.0
 20
12866.025
 30
0.0
  0
VERTEX
  5
27EF
  8
LAYER_1
  6
CONTINUOUS
 10
18577.382000000001
 20
12906.308000000001
 30
0.0
  0
VERTEX
  5
27F0
  8
LAYER_1
  6
CONTINUOUS
 10
18657.98
 20
12939.692999999999
 30
0.0
  0
VERTEX
  5
27F1
  8
LAYER_1
  6
CONTINUOUS
 10
18741.181
 20
12965.925999999999
 30
0.0
  0
VERTEX
  5
27F2
  8
LAYER_1
  6
CONTINUOUS
 10
18826.351999999999
 20
12984.808000000001
 30
0.0
  0
SEQEND
  5
27F3
  8
LAYER_1
  6
CONTINUOUS
  0
POLYLINE
  5
530
  8
LAYER_1
  6
CONTINUOUS
 66
     1
 10
0.0
 20
0.0
 30
0.0
 70
     1
  0
VERTEX
  5
27F4
  8
LAYER_1
  6
CONTINUOUS
 10
16900.0
 20
7953.9750000000013
 30
0.0
  0
VERTEX
  5
27F5
  8
LAYER_1
  6
CONTINUOUS
 10
16900.0
 20
9868.1280000000024
 30
0.0
  0
VERTEX
  5
27F6
  8
LAYER_1
  6
CONTINUOUS
 10
17021.435000000001
 20
9744.5560000000005
 30
0.0
  0
VERTEX
  5
27F7
  8
LAYER_1
  6
CONTINUOUS
 10
17057.98
 20
9759.6929999999993
 30
0.0
  0
VERTEX
  5
27F8
  8
LAYER_1
  6
CONTINUOUS
 10
17141.181
 20
9785.9259999999995
 30
0.0
  0
VERTEX
  5
27F9
  8
LAYER_1
  6
CONTINUOUS
 10
17226.351999999999
 20
9804.8080000000009
 30
0.0
  0
VERTEX
  5
27FA
  8
LAYER_1
  6
CONTINUOUS
 10
17312.844000000001
 20
9816.1949999999997
 30
0.0
  0
VERTEX
  5
27FB
  8
LAYER_1
  6
CONTINUOUS
 10
17400.0
 20
9820.0
 30
0.0
  0
VERTEX
  5
27FC
  8
LAYER_1
  6
CONTINUOUS
 10
17487.155999999999
 20
9816.1949999999997
 30
0.0
  0
VERTEX
  5
27FD
  8
LAYER_1
  6
CONTINUOUS
 10
17573.648000000001
 20
9804.8080000000009
 30
0.0
  0
VERTEX
  5
27FE
  8
LAYER_1
  6
CONTINUOUS
 10
17658.819
 20
9785.9259999999995
 30
0.0
  0
VERTEX
  5
27FF
  8
LAYER_1
  6
CONTINUOUS
 10
17742.02
 20
9759.6929999999993
 30
0.0
  0
VERTEX
  5
2800
  8
LAYER_1
  6
CONTINUOUS
 10
17822.617999999999
 20
9726.3080000000027
 30
0.0
  0
VERTEX
  5
2801
  8
LAYER_1
  6
CONTINUOUS
 10
17900.0
 20
9686.0249999999996
 30
0.0
  0
VERTEX
  5
2802
  8
LAYER_1
  6
CONTINUOUS
 10
17973.576000000001
 20
9639.1520000000019
 30
0.0
  0
VERTEX
  5
2803
  8
LAYER_1
  6
CONTINUOUS
 10
18042.788
 20
9586.0439999999999
 30
0.0
  0
VERTEX
  5
2804
  8
LAYER_1
  6
CONTINUOUS
 10
18107.107
 20
9527.1069999999982
 30
0.0
  0
VERTEX
  5
2805
  8
LAYER_1
  6
CONTINUOUS
 10
18166.044000000002
 20
9462.7880000000005
 30
0.0
  0
VERTEX
  5
2806
  8
LAYER_1
  6
CONTINUOUS
 10
18219.151999999998
 20
9393.5759999999991
 30
0.0
  0
VERTEX
  5
2807
  8
LAYER_1
  6
CONTINUOUS
 10
18266.025000000001
 20
9320.0
 30
0.0
  0
VERTEX
  5
2808
  8
LAYER_1
  6
CONTINUOUS
 10
18306.308000000001
 20
9242.6180000000004
 30
0.0
  0
VERTEX
  5
2809
  8
LAYER_1
  6
CONTINUOUS
 10
18339.692999999999
 20
9162.0200000000004
 30
0.0
  0
VERTEX
  5
280A
  8
LAYER_1
  6
CONTINUOUS
 10
18365.925999999999
 20
9078.8190000000013
 30
0.0
  0
VERTEX
  5
280B
  8
LAYER_1
  6
CONTINUOUS
 10
18384.808000000001
 20
8993.6479999999974
 30
0.0
  0
VERTEX
  5
280C
  8
LAYER_1
  6
CONTINUOUS
 10
18396.195
 20
8907.1560000000009
 30
0.0
  0
VERTEX
  5
280D
  8
LAYER_1
  6
CONTINUOUS
 10
18400.0
 20
8820.0
 30
0.0
  0
VERTEX
  5
280E
  8
LAYER_1
  6
CONTINUOUS
 10
18396.195
 20
8732.8439999999973
 30
0.0
  0
VERTEX
  5
280F
  8
LAYER_1
  6
CONTINUOUS
 10
18384.808000000001
 20
8646.3520000000008
 30
0.0
  0
VERTEX
  5
2810
  8
LAYER_1
  6
CONTINUOUS
 10
18365.925999999999
 20
8561.1810000000005
 30
0.0
  0
VERTEX
  5
2811
  8
LAYER_1
  6
CONTINUOUS
 10
18339.692999999999
 20
8477.9799999999996
 30
0.0
  0
VERTEX
  5
2812
  8
LAYER_1
  6
CONTINUOUS
 10
18306.308000000001
 20
8397.3819999999996
 30
0.0
  0
VERTEX
  5
2813
  8
LAYER_1
  6
CONTINUOUS
 10
18266.025000000001
 20
8320.0
 30
0.0
  0
VERTEX
  5
2814
  8
LAYER_1
  6
CONTINUOUS
 10
18219.151999999998
 20
8246.4240000000009
 30
0.0
  0
VERTEX
  5
2815
  8
LAYER_1
  6
CONTINUOUS
 10
18166.044000000002
 20
8177.2120000000004
 30
0.0
  0
VERTEX
  5
2816
  8
LAYER_1
  6
CONTINUOUS
 10
18107.107
 20
8112.8929999999991
 30
0.0
  0
VERTEX
  5
2817
  8
LAYER_1
  6
CONTINUOUS
 10
18042.788
 20
8053.956000000001
 30
0.0
  0
VERTEX
  5
2818
  8
LAYER_1
  6
CONTINUOUS
 10
17973.576000000001
 20
8000.8480000000009
 30
0.0
  0
VERTEX
  5
2819
  8
LAYER_1
  6
CONTINUOUS
 10
17900.0
 20
7953.9750000000013
 30
0.0
  0
VERTEX
  5
281A
  8
LAYER_1
  6
CONTINUOUS
 10
17822.617999999999
 20
7913.6920000000009
 30
0.0
  0
VERTEX
  5
281B
  8
LAYER_1
  6
CONTINUOUS
 10
17742.02
 20
7880.3070000000007
 30
0.0
  0
VERTEX
  5
281C
  8
LAYER_1
  6
CONTINUOUS
 10
17658.819
 20
7854.0739999999996
 30
0.0
  0
VERTEX
  5
281D
  8
LAYER_1
  6
CONTINUOUS
 10
17573.648000000001
 20
7835.1920000000009
 30
0.0
  0
VERTEX
  5
281E
  8
LAYER_1
  6
CONTINUOUS
 10
17487.155999999999
 20
7823.8050000000003
 30
0.0
  0
VERTEX
  5
281F
  8
LAYER_1
  6
CONTINUOUS
 10
17400.0
 20
7820.0
 30
0.0
  0
VERTEX
  5
2820
  8
LAYER_1
  6
CONTINUOUS
 10
17312.844000000001
 20
7823.8050000000003
 30
0.0
  0
VERTEX
  5
2821
  8
LAYER_1
  6
CONTINUOUS
 10
17226.351999999999
 20
7835.1920000000009
 30
0.0
  0
VERTEX
  5
2822
  8
LAYER_1
  6
CONTINUOUS
 10
17141.181
 20
7854.0739999999996
 30
0.0
  0
VERTEX
  5
2823
  8
LAYER_1
  6
CONTINUOUS
 10
17057.98
 20
7880.3070000000007
 30
0.0
  0
VERTEX
  5
2824
  8
LAYER_1
  6
CONTINUOUS
 10
16977.382000000001
 20
7913.6920000000009
 30
0.0
  0
VERTEX
  5
2825
  8
LAYER_1
  6
CONTINUOUS
 10
16900.0
 20
7953.9750000000013
 30
0.0
  0
SEQEND
  5
2826
  8
LAYER_1
  6
CONTINUOUS
  0
POLYLINE
  5
531
  8
LAYER_1
  6
CONTINUOUS
 66
     1
 10
0.0
 20
0.0
 30
0.0
 70
     1
  0
VERTEX
  5
2827
  8
LAYER_1
  6
CONTINUOUS
 10
13800.0
 20
13520.0
 30
0.0
  0
VERTEX
  5
2828
  8
LAYER_1
  6
CONTINUOUS
 10
13800.0
 20
19220.0
 30
0.0
  0
VERTEX
  5
2829
  8
LAYER_1
  6
CONTINUOUS
 10
13887.156000000001
 20
19216.195
 30
0.0
  0
VERTEX
  5
282A
  8
LAYER_1
  6
CONTINUOUS
 10
13973.647999999999
 20
19204.808000000001
 30
0.0
  0
VERTEX
  5
282B
  8
LAYER_1
  6
CONTINUOUS
 10
14058.819
 20
19185.925999999999
 30
0.0
  0
VERTEX
  5
282C
  8
LAYER_1
  6
CONTINUOUS
 10
14142.02
 20
19159.692999999999
 30
0.0
  0
VERTEX
  5
282D
  8
LAYER_1
  6
CONTINUOUS
 10
14222.618
 20
19126.308000000001
 30
0.0
  0
VERTEX
  5
282E
  8
LAYER_1
  6
CONTINUOUS
 10
14300.0
 20
19086.025000000001
 30
0.0
  0
VERTEX
  5
282F
  8
LAYER_1
  6
CONTINUOUS
 10
14373.575999999999
 20
19039.151999999998
 30
0.0
  0
VERTEX
  5
2830
  8
LAYER_1
  6
CONTINUOUS
 10
14442.788
 20
18986.044000000002
 30
0.0
  0
VERTEX
  5
2831
  8
LAYER_1
  6
CONTINUOUS
 10
14507.107
 20
18927.107
 30
0.0
  0
VERTEX
  5
2832
  8
LAYER_1
  6
CONTINUOUS
 10
14566.044
 20
18862.788
 30
0.0
  0
VERTEX
  5
2833
  8
LAYER_1
  6
CONTINUOUS
 10
14619.152
 20
18793.576000000001
 30
0.0
  0
VERTEX
  5
2834
  8
LAYER_1
  6
CONTINUOUS
 10
14666.025
 20
18720.0
 30
0.0
  0
VERTEX
  5
2835
  8
LAYER_1
  6
CONTINUOUS
 10
14706.308000000001
 20
18642.617999999999
 30
0.0
  0
VERTEX
  5
2836
  8
LAYER_1
  6
CONTINUOUS
 10
14739.692999999999
 20
18562.02
 30
0.0
  0
VERTEX
  5
2837
  8
LAYER_1
  6
CONTINUOUS
 10
14765.925999999999
 20
18478.819
 30
0.0
  0
VERTEX
  5
2838
  8
LAYER_1
  6
CONTINUOUS
 10
14784.808000000001
 20
18393.648000000001
 30
0.0
  0
VERTEX
  5
2839
  8
LAYER_1
  6
CONTINUOUS
 10
14796.195
 20
18307.155999999999
 30
0.0
  0
VERTEX
  5
283A
  8
LAYER_1
  6
CONTINUOUS
 10
14800.0
 20
18220.0
 30
0.0
  0
VERTEX
  5
283B
  8
LAYER_1
  6
CONTINUOUS
 10
14796.195
 20
18132.844000000001
 30
0.0
  0
VERTEX
  5
283C
  8
LAYER_1
  6
CONTINUOUS
 10
14784.808000000001
 20
18046.351999999999
 30
0.0
  0
VERTEX
  5
283D
  8
LAYER_1
  6
CONTINUOUS
 10
14765.925999999999
 20
17961.181
 30
0.0
  0
VERTEX
  5
283E
  8
LAYER_1
  6
CONTINUOUS
 10
14739.692999999999
 20
17877.98
 30
0.0
  0
VERTEX
  5
283F
  8
LAYER_1
  6
CONTINUOUS
 10
14706.308000000001
 20
17797.382000000001
 30
0.0
  0
VERTEX
  5
2840
  8
LAYER_1
  6
CONTINUOUS
 10
14666.025
 20
17720.0
 30
0.0
  0
VERTEX
  5
2841
  8
LAYER_1
  6
CONTINUOUS
 10
14619.152
 20
17646.423999999999
 30
0.0
  0
VERTEX
  5
2842
  8
LAYER_1
  6
CONTINUOUS
 10
14566.044
 20
17577.212
 30
0.0
  0
VERTEX
  5
2843
  8
LAYER_1
  6
CONTINUOUS
 10
14507.107
 20
17512.893
 30
0.0
  0
VERTEX
  5
2844
  8
LAYER_1
  6
CONTINUOUS
 10
14442.788
 20
17453.955999999998
 30
0.0
  0
VERTEX
  5
2845
  8
LAYER_1
  6
CONTINUOUS
 10
14373.575999999999
 20
17400.848000000002
 30
0.0
  0
VERTEX
  5
2846
  8
LAYER_1
  6
CONTINUOUS
 10
14300.0
 20
17353.974999999999
 30
0.0
  0
VERTEX
  5
2847
  8
LAYER_1
  6
CONTINUOUS
 10
14222.618
 20
17313.691999999999
 30
0.0
  0
VERTEX
  5
2848
  8
LAYER_1
  6
CONTINUOUS
 10
14142.02
 20
17280.307000000001
 30
0.0
  0
VERTEX
  5
2849
  8
LAYER_1
  6
CONTINUOUS
 10
14100.0
 20
17267.058000000001
 30
0.0
  0
VERTEX
  5
284A
  8
LAYER_1
  6
CONTINUOUS
 10
14100.0
 20
15020.0
 30
0.0
  0
VERTEX
  5
284B
  8
LAYER_1
  6
CONTINUOUS
 10
14106.699000000001
 20
15020.0
 30
0.0
  0
VERTEX
  5
284C
  8
LAYER_1
  6
CONTINUOUS
 10
14106.699000000001
 20
14985.0
 30
0.0
  0
VERTEX
  5
284D
  8
LAYER_1
  6
CONTINUOUS
 10
14150.0
 20
14960.0
 30
0.0
  0
VERTEX
  5
284E
  8
LAYER_1
  6
CONTINUOUS
 10
14150.0
 20
14860.0
 30
0.0
  0
VERTEX
  5
284F
  8
LAYER_1
  6
CONTINUOUS
 10
14106.699000000001
 20
14835.0
 30
0.0
  0
VERTEX
  5
2850
  8
LAYER_1
  6
CONTINUOUS
 10
14106.699000000001
 20
14785.0
 30
0.0
  0
VERTEX
  5
2851
  8
LAYER_1
  6
CONTINUOUS
 10
14150.0
 20
14760.0
 30
0.0
  0
VERTEX
  5
2852
  8
LAYER_1
  6
CONTINUOUS
 10
14150.0
 20
14660.0
 30
0.0
  0
VERTEX
  5
2853
  8
LAYER_1
  6
CONTINUOUS
 10
14106.699000000001
 20
14635.0
 30
0.0
  0
VERTEX
  5
2854
  8
LAYER_1
  6
CONTINUOUS
 10
14106.699000000001
 20
14585.0
 30
0.0
  0
VERTEX
  5
2855
  8
LAYER_1
  6
CONTINUOUS
 10
14150.0
 20
14560.0
 30
0.0
  0
VERTEX
  5
2856
  8
LAYER_1
  6
CONTINUOUS
 10
14150.0
 20
14460.0
 30
0.0
  0
VERTEX
  5
2857
  8
LAYER_1
  6
CONTINUOUS
 10
14106.699000000001
 20
14435.0
 30
0.0
  0
VERTEX
  5
2858
  8
LAYER_1
  6
CONTINUOUS
 10
14106.699000000001
 20
14385.0
 30
0.0
  0
VERTEX
  5
2859
  8
LAYER_1
  6
CONTINUOUS
 10
14150.0
 20
14360.0
 30
0.0
  0
VERTEX
  5
285A
  8
LAYER_1
  6
CONTINUOUS
 10
14150.0
 20
14260.0
 30
0.0
  0
VERTEX
  5
285B
  8
LAYER_1
  6
CONTINUOUS
 10
14106.699000000001
 20
14235.0
 30
0.0
  0
VERTEX
  5
285C
  8
LAYER_1
  6
CONTINUOUS
 10
14106.699000000001
 20
14185.0
 30
0.0
  0
VERTEX
  5
285D
  8
LAYER_1
  6
CONTINUOUS
 10
14150.0
 20
14160.0
 30
0.0
  0
VERTEX
  5
285E
  8
LAYER_1
  6
CONTINUOUS
 10
14150.0
 20
14060.0
 30
0.0
  0
VERTEX
  5
285F
  8
LAYER_1
  6
CONTINUOUS
 10
14106.699000000001
 20
14035.0
 30
0.0
  0
VERTEX
  5
2860
  8
LAYER_1
  6
CONTINUOUS
 10
14106.699000000001
 20
13985.0
 30
0.0
  0
VERTEX
  5
2861
  8
LAYER_1
  6
CONTINUOUS
 10
14150.0
 20
13960.0
 30
0.0
  0
VERTEX
  5
2862
  8
LAYER_1
  6
CONTINUOUS
 10
14150.0
 20
13860.0
 30
0.0
  0
VERTEX
  5
2863
  8
LAYER_1
  6
CONTINUOUS
 10
14106.699000000001
 20
13835.0
 30
0.0
  0
VERTEX
  5
2864
  8
LAYER_1
  6
CONTINUOUS
 10
14106.699000000001
 20
13785.0
 30
0.0
  0
VERTEX
  5
2865
  8
LAYER_1
  6
CONTINUOUS
 10
14150.0
 20
13760.0
 30
0.0
  0
VERTEX
  5
2866
  8
LAYER_1
  6
CONTINUOUS
 10
14150.0
 20
13660.0
 30
0.0
  0
VERTEX
  5
2867
  8
LAYER_1
  6
CONTINUOUS
 10
14106.699000000001
 20
13635.0
 30
0.0
  0
VERTEX
  5
2868
  8
LAYER_1
  6
CONTINUOUS
 10
14106.699000000001
 20
13585.0
 30
0.0
  0
VERTEX
  5
2869
  8
LAYER_1
  6
CONTINUOUS
 10
14150.0
 20
13560.0
 30
0.0
  0
VERTEX
  5
286A
  8
LAYER_1
  6
CONTINUOUS
 10
14193.300999999999
 20
13585.0
 30
0.0
  0
VERTEX
  5
286B
  8
LAYER_1
  6
CONTINUOUS
 10
14193.300999999999
 20
13635.0
 30
0.0
  0
VERTEX
  5
286C
  8
LAYER_1
  6
CONTINUOUS
 10
14150.0
 20
13660.0
 30
0.0
  0
VERTEX
  5
286D
  8
LAYER_1
  6
CONTINUOUS
 10
14150.0
 20
13760.0
 30
0.0
  0
VERTEX
  5
286E
  8
LAYER_1
  6
CONTINUOUS
 10
14150.0
 20
13760.0
 30
0.0
  0
VERTEX
  5
286F
  8
LAYER_1
  6
CONTINUOUS
 10
14193.300999999999
 20
13785.0
 30
0.0
  0
VERTEX
  5
2870
  8
LAYER_1
  6
CONTINUOUS
 10
14193.300999999999
 20
13835.0
 30
0.0
  0
VERTEX
  5
2871
  8
LAYER_1
  6
CONTINUOUS
 10
14150.0
 20
13860.0
 30
0.0
  0
VERTEX
  5
2872
  8
LAYER_1
  6
CONTINUOUS
 10
14150.0
 20
13960.0
 30
0.0
  0
VERTEX
  5
2873
  8
LAYER_1
  6
CONTINUOUS
 10
14150.0
 20
13960.0
 30
0.0
  0
VERTEX
  5
2874
  8
LAYER_1
  6
CONTINUOUS
 10
14193.300999999999
 20
13985.0
 30
0.0
  0
VERTEX
  5
2875
  8
LAYER_1
  6
CONTINUOUS
 10
14193.300999999999
 20
14035.0
 30
0.0
  0
VERTEX
  5
2876
  8
LAYER_1
  6
CONTINUOUS
 10
14150.0
 20
14060.0
 30
0.0
  0
VERTEX
  5
2877
  8
LAYER_1
  6
CONTINUOUS
 10
14150.0
 20
14160.0
 30
0.0
  0
VERTEX
  5
2878
  8
LAYER_1
  6
CONTINUOUS
 10
14150.0
 20
14160.0
 30
0.0
  0
VERTEX
  5
2879
  8
LAYER_1
  6
CONTINUOUS
 10
14193.300999999999
 20
14185.0
 30
0.0
  0
VERTEX
  5
287A
  8
LAYER_1
  6
CONTINUOUS
 10
14193.300999999999
 20
14235.0
 30
0.0
  0
VERTEX
  5
287B
  8
LAYER_1
  6
CONTINUOUS
 10
14150.0
 20
14260.0
 30
0.0
  0
VERTEX
  5
287C
  8
LAYER_1
  6
CONTINUOUS
 10
14150.0
 20
14360.0
 30
0.0
  0
VERTEX
  5
287D
  8
LAYER_1
  6
CONTINUOUS
 10
14193.300999999999
 20
14385.0
 30
0.0
  0
VERTEX
  5
287E
  8
LAYER_1
  6
CONTINUOUS
 10
14193.300999999999
 20
14435.0
 30
0.0
  0
VERTEX
  5
287F
  8
LAYER_1
  6
CONTINUOUS
 10
14150.0
 20
14460.0
 30
0.0
  0
VERTEX
  5
2880
  8
LAYER_1
  6
CONTINUOUS
 10
14150.0
 20
14560.0
 30
0.0
  0
VERTEX
  5
2881
  8
LAYER_1
  6
CONTINUOUS
 10
14150.0
 20
14560.0
 30
0.0
  0
VERTEX
  5
2882
  8
LAYER_1
  6
CONTINUOUS
 10
14193.300999999999
 20
14585.0
 30
0.0
  0
VERTEX
  5
2883
  8
LAYER_1
  6
CONTINUOUS
 10
14193.300999999999
 20
14635.0
 30
0.0
  0
VERTEX
  5
2884
  8
LAYER_1
  6
CONTINUOUS
 10
14150.0
 20
14660.0
 30
0.0
  0
VERTEX
  5
2885
  8
LAYER_1
  6
CONTINUOUS
 10
14150.0
 20
14760.0
 30
0.0
  0
VERTEX
  5
2886
  8
LAYER_1
  6
CONTINUOUS
 10
14150.0
 20
14760.0
 30
0.0
  0
VERTEX
  5
2887
  8
LAYER_1
  6
CONTINUOUS
 10
14193.300999999999
 20
14785.0
 30
0.0
  0
VERTEX
  5
2888
  8
LAYER_1
  6
CONTINUOUS
 10
14193.300999999999
 20
14835.0
 30
0.0
  0
VERTEX
  5
2889
  8
LAYER_1
  6
CONTINUOUS
 10
14150.0
 20
14860.0
 30
0.0
  0
VERTEX
  5
288A
  8
LAYER_1
  6
CONTINUOUS
 10
14150.0
 20
14960.0
 30
0.0
  0
VERTEX
  5
288B
  8
LAYER_1
  6
CONTINUOUS
 10
14193.300999999999
 20
14985.0
 30
0.0
  0
VERTEX
  5
288C
  8
LAYER_1
  6
CONTINUOUS
 10
14193.300999999999
 20
15020.0
 30
0.0
  0
VERTEX
  5
288D
  8
LAYER_1
  6
CONTINUOUS
 10
14200.0
 20
15020.0
 30
0.0
  0
VERTEX
  5
288E
  8
LAYER_1
  6
CONTINUOUS
 10
16598.613000000001
 20
17623.273000000001
 30
0.0
  0
VERTEX
  5
288F
  8
LAYER_1
  6
CONTINUOUS
 10
16580.848000000002
 20
17646.423999999999
 30
0.0
  0
VERTEX
  5
2890
  8
LAYER_1
  6
CONTINUOUS
 10
16533.974999999999
 20
17720.0
 30
0.0
  0
VERTEX
  5
2891
  8
LAYER_1
  6
CONTINUOUS
 10
16493.691999999999
 20
17797.382000000001
 30
0.0
  0
VERTEX
  5
2892
  8
LAYER_1
  6
CONTINUOUS
 10
16460.307000000001
 20
17877.98
 30
0.0
  0
VERTEX
  5
2893
  8
LAYER_1
  6
CONTINUOUS
 10
16434.074000000001
 20
17961.181
 30
0.0
  0
VERTEX
  5
2894
  8
LAYER_1
  6
CONTINUOUS
 10
16415.191999999999
 20
18046.351999999999
 30
0.0
  0
VERTEX
  5
2895
  8
LAYER_1
  6
CONTINUOUS
 10
16403.805
 20
18132.844000000001
 30
0.0
  0
VERTEX
  5
2896
  8
LAYER_1
  6
CONTINUOUS
 10
16400.0
 20
18220.0
 30
0.0
  0
VERTEX
  5
2897
  8
LAYER_1
  6
CONTINUOUS
 10
16403.805
 20
18307.155999999999
 30
0.0
  0
VERTEX
  5
2898
  8
LAYER_1
  6
CONTINUOUS
 10
16415.191999999999
 20
18393.648000000001
 30
0.0
  0
VERTEX
  5
2899
  8
LAYER_1
  6
CONTINUOUS
 10
16434.074000000001
 20
18478.819
 30
0.0
  0
VERTEX
  5
289A
  8
LAYER_1
  6
CONTINUOUS
 10
16460.307000000001
 20
18562.02
 30
0.0
  0
VERTEX
  5
289B
  8
LAYER_1
  6
CONTINUOUS
 10
16493.691999999999
 20
18642.617999999999
 30
0.0
  0
VERTEX
  5
289C
  8
LAYER_1
  6
CONTINUOUS
 10
16533.974999999999
 20
18720.0
 30
0.0
  0
VERTEX
  5
289D
  8
LAYER_1
  6
CONTINUOUS
 10
16580.848000000002
 20
18793.576000000001
 30
0.0
  0
VERTEX
  5
289E
  8
LAYER_1
  6
CONTINUOUS
 10
16633.955999999998
 20
18862.788
 30
0.0
  0
VERTEX
  5
289F
  8
LAYER_1
  6
CONTINUOUS
 10
16692.893
 20
18927.107
 30
0.0
  0
VERTEX
  5
28A0
  8
LAYER_1
  6
CONTINUOUS
 10
16757.212
 20
18986.044000000002
 30
0.0
  0
VERTEX
  5
28A1
  8
LAYER_1
  6
CONTINUOUS
 10
16826.423999999999
 20
19039.151999999998
 30
0.0
  0
VERTEX
  5
28A2
  8
LAYER_1
  6
CONTINUOUS
 10
16900.0
 20
19086.025000000001
 30
0.0
  0
VERTEX
  5
28A3
  8
LAYER_1
  6
CONTINUOUS
 10
16900.0
 20
17151.873
 30
0.0
  0
VERTEX
  5
28A4
  8
LAYER_1
  6
CONTINUOUS
 10
14805.0
 20
15020.0
 30
0.0
  0
VERTEX
  5
28A5
  8
LAYER_1
  6
CONTINUOUS
 10
14806.700000000001
 20
15020.0
 30
0.0
  0
VERTEX
  5
28A6
  8
LAYER_1
  6
CONTINUOUS
 10
14806.700000000001
 20
14960.0
 30
0.0
  0
VERTEX
  5
28A7
  8
LAYER_1
  6
CONTINUOUS
 10
14806.700000000001
 20
14960.0
 30
0.0
  0
VERTEX
  5
28A8
  8
LAYER_1
  6
CONTINUOUS
 10
14806.700000000001
 20
14860.0
 30
0.0
  0
VERTEX
  5
28A9
  8
LAYER_1
  6
CONTINUOUS
 10
14806.700000000001
 20
14760.0
 30
0.0
  0
VERTEX
  5
28AA
  8
LAYER_1
  6
CONTINUOUS
 10
14806.700000000001
 20
14760.0
 30
0.0
  0
VERTEX
  5
28AB
  8
LAYER_1
  6
CONTINUOUS
 10
14806.700000000001
 20
14660.0
 30
0.0
  0
VERTEX
  5
28AC
  8
LAYER_1
  6
CONTINUOUS
 10
14806.700000000001
 20
14560.0
 30
0.0
  0
VERTEX
  5
28AD
  8
LAYER_1
  6
CONTINUOUS
 10
14806.700000000001
 20
14460.0
 30
0.0
  0
VERTEX
  5
28AE
  8
LAYER_1
  6
CONTINUOUS
 10
14806.700000000001
 20
14360.0
 30
0.0
  0
VERTEX
  5
28AF
  8
LAYER_1
  6
CONTINUOUS
 10
14806.700000000001
 20
14360.0
 30
0.0
  0
VERTEX
  5
28B0
  8
LAYER_1
  6
CONTINUOUS
 10
14806.700000000001
 20
14260.0
 30
0.0
  0
VERTEX
  5
28B1
  8
LAYER_1
  6
CONTINUOUS
 10
14806.700000000001
 20
14160.0
 30
0.0
  0
VERTEX
  5
28B2
  8
LAYER_1
  6
CONTINUOUS
 10
14806.700000000001
 20
14160.0
 30
0.0
  0
VERTEX
  5
28B3
  8
LAYER_1
  6
CONTINUOUS
 10
14806.700000000001
 20
14060.0
 30
0.0
  0
VERTEX
  5
28B4
  8
LAYER_1
  6
CONTINUOUS
 10
14806.700000000001
 20
13960.0
 30
0.0
  0
VERTEX
  5
28B5
  8
LAYER_1
  6
CONTINUOUS
 10
14806.700000000001
 20
13960.0
 30
0.0
  0
VERTEX
  5
28B6
  8
LAYER_1
  6
CONTINUOUS
 10
14806.700000000001
 20
13860.0
 30
0.0
  0
VERTEX
  5
28B7
  8
LAYER_1
  6
CONTINUOUS
 10
14806.700000000001
 20
13760.0
 30
0.0
  0
VERTEX
  5
28B8
  8
LAYER_1
  6
CONTINUOUS
 10
14806.700000000001
 20
13760.0
 30
0.0
  0
VERTEX
  5
28B9
  8
LAYER_1
  6
CONTINUOUS
 10
14806.700000000001
 20
13660.0
 30
0.0
  0
VERTEX
  5
28BA
  8
LAYER_1
  6
CONTINUOUS
 10
14806.700000000001
 20
13560.0
 30
0.0
  0
VERTEX
  5
28BB
  8
LAYER_1
  6
CONTINUOUS
 10
14893.299999999999
 20
13585.0
 30
0.0
  0
VERTEX
  5
28BC
  8
LAYER_1
  6
CONTINUOUS
 10
14893.299999999999
 20
13635.0
 30
0.0
  0
VERTEX
  5
28BD
  8
LAYER_1
  6
CONTINUOUS
 10
14806.700000000001
 20
13660.0
 30
0.0
  0
VERTEX
  5
28BE
  8
LAYER_1
  6
CONTINUOUS
 10
14806.700000000001
 20
13760.0
 30
0.0
  0
VERTEX
  5
28BF
  8
LAYER_1
  6
CONTINUOUS
 10
14893.299999999999
 20
13785.0
 30
0.0
  0
VERTEX
  5
28C0
  8
LAYER_1
  6
CONTINUOUS
 10
14893.299999999999
 20
13835.0
 30
0.0
  0
VERTEX
  5
28C1
  8
LAYER_1
  6
CONTINUOUS
 10
14806.700000000001
 20
13860.0
 30
0.0
  0
VERTEX
  5
28C2
  8
LAYER_1
  6
CONTINUOUS
 10
14806.700000000001
 20
13960.0
 30
0.0
  0
VERTEX
  5
28C3
  8
LAYER_1
  6
CONTINUOUS
 10
14893.299999999999
 20
13985.0
 30
0.0
  0
VERTEX
  5
28C4
  8
LAYER_1
  6
CONTINUOUS
 10
14893.299999999999
 20
14035.0
 30
0.0
  0
VERTEX
  5
28C5
  8
LAYER_1
  6
CONTINUOUS
 10
14806.700000000001
 20
14060.0
 30
0.0
  0
VERTEX
  5
28C6
  8
LAYER_1
  6
CONTINUOUS
 10
14806.700000000001
 20
14160.0
 30
0.0
  0
VERTEX
  5
28C7
  8
LAYER_1
  6
CONTINUOUS
 10
14893.299999999999
 20
14185.0
 30
0.0
  0
VERTEX
  5
28C8
  8
LAYER_1
  6
CONTINUOUS
 10
14893.299999999999
 20
14235.0
 30
0.0
  0
VERTEX
  5
28C9
  8
LAYER_1
  6
CONTINUOUS
 10
14806.700000000001
 20
14260.0
 30
0.0
  0
VERTEX
  5
28CA
  8
LAYER_1
  6
CONTINUOUS
 10
14806.700000000001
 20
14360.0
 30
0.0
  0
VERTEX
  5
28CB
  8
LAYER_1
  6
CONTINUOUS
 10
14893.299999999999
 20
14385.0
 30
0.0
  0
VERTEX
  5
28CC
  8
LAYER_1
  6
CONTINUOUS
 10
14893.299999999999
 20
14435.0
 30
0.0
  0
VERTEX
  5
28CD
  8
LAYER_1
  6
CONTINUOUS
 10
14806.700000000001
 20
14460.0
 30
0.0
  0
VERTEX
  5
28CE
  8
LAYER_1
  6
CONTINUOUS
 10
14806.700000000001
 20
14560.0
 30
0.0
  0
VERTEX
  5
28CF
  8
LAYER_1
  6
CONTINUOUS
 10
14893.299999999999
 20
14585.0
 30
0.0
  0
VERTEX
  5
28D0
  8
LAYER_1
  6
CONTINUOUS
 10
14893.299999999999
 20
14635.0
 30
0.0
  0
VERTEX
  5
28D1
  8
LAYER_1
  6
CONTINUOUS
 10
14806.700000000001
 20
14660.0
 30
0.0
  0
VERTEX
  5
28D2
  8
LAYER_1
  6
CONTINUOUS
 10
14806.700000000001
 20
14760.0
 30
0.0
  0
VERTEX
  5
28D3
  8
LAYER_1
  6
CONTINUOUS
 10
14893.299999999999
 20
14785.0
 30
0.0
  0
VERTEX
  5
28D4
  8
LAYER_1
  6
CONTINUOUS
 10
14893.299999999999
 20
14835.0
 30
0.0
  0
VERTEX
  5
28D5
  8
LAYER_1
  6
CONTINUOUS
 10
14806.700000000001
 20
14860.0
 30
0.0
  0
VERTEX
  5
28D6
  8
LAYER_1
  6
CONTINUOUS
 10
14806.700000000001
 20
14960.0
 30
0.0
  0
VERTEX
  5
28D7
  8
LAYER_1
  6
CONTINUOUS
 10
14893.299999999999
 20
14985.0
 30
0.0
  0
VERTEX
  5
28D8
  8
LAYER_1
  6
CONTINUOUS
 10
14893.299999999999
 20
15025.0
 30
0.0
  0
VERTEX
  5
28D9
  8
LAYER_1
  6
CONTINUOUS
 10
14914.974
 20
15025.0
 30
0.0
  0
VERTEX
  5
28DA
  8
LAYER_1
  6
CONTINUOUS
 10
16900.0
 20
15521.91
 30
0.0
  0
VERTEX
  5
28DB
  8
LAYER_1
  6
CONTINUOUS
 10
16900.0
 20
14889.644
 30
0.0
  0
VERTEX
  5
28DC
  8
LAYER_1
  6
CONTINUOUS
 10
15550.0
 20
14580.157999999999
 30
0.0
  0
VERTEX
  5
28DD
  8
LAYER_1
  6
CONTINUOUS
 10
15550.0
 20
13520.0
 30
0.0
  0
VERTEX
  5
28DE
  8
LAYER_1
  6
CONTINUOUS
 10
13800.0
 20
13520.0
 30
0.0
  0
SEQEND
  5
28DF
  8
LAYER_1
  6
CONTINUOUS
  0
POLYLINE
  5
532
  8
LAYER_1
  6
CONTINUOUS
 66
     1
 10
0.0
 20
0.0
 30
0.0
 70
     1
  0
VERTEX
  5
28E0
  8
LAYER_1
  6
CONTINUOUS
 10
17226.351999999999
 20
19204.808000000001
 30
0.0
  0
VERTEX
  5
28E1
  8
LAYER_1
  6
CONTINUOUS
 10
17312.844000000001
 20
19216.195
 30
0.0
  0
VERTEX
  5
28E2
  8
LAYER_1
  6
CONTINUOUS
 10
17400.0
 20
19220.0
 30
0.0
  0
VERTEX
  5
28E3
  8
LAYER_1
  6
CONTINUOUS
 10
17487.155999999999
 20
19216.195
 30
0.0
  0
VERTEX
  5
28E4
  8
LAYER_1
  6
CONTINUOUS
 10
17573.648000000001
 20
19204.808000000001
 30
0.0
  0
VERTEX
  5
28E5
  8
LAYER_1
  6
CONTINUOUS
 10
17658.819
 20
19185.925999999999
 30
0.0
  0
VERTEX
  5
28E6
  8
LAYER_1
  6
CONTINUOUS
 10
17742.02
 20
19159.692999999999
 30
0.0
  0
VERTEX
  5
28E7
  8
LAYER_1
  6
CONTINUOUS
 10
17822.617999999999
 20
19126.308000000001
 30
0.0
  0
VERTEX
  5
28E8
  8
LAYER_1
  6
CONTINUOUS
 10
17900.0
 20
19086.025000000001
 30
0.0
  0
VERTEX
  5
28E9
  8
LAYER_1
  6
CONTINUOUS
 10
17973.576000000001
 20
19039.151999999998
 30
0.0
  0
VERTEX
  5
28EA
  8
LAYER_1
  6
CONTINUOUS
 10
18042.788
 20
18986.044000000002
 30
0.0
  0
VERTEX
  5
28EB
  8
LAYER_1
  6
CONTINUOUS
 10
18107.107
 20
18927.107
 30
0.0
  0
VERTEX
  5
28EC
  8
LAYER_1
  6
CONTINUOUS
 10
18166.044000000002
 20
18862.788
 30
0.0
  0
VERTEX
  5
28ED
  8
LAYER_1
  6
CONTINUOUS
 10
18219.151999999998
 20
18793.576000000001
 30
0.0
  0
VERTEX
  5
28EE
  8
LAYER_1
  6
CONTINUOUS
 10
18266.025000000001
 20
18720.0
 30
0.0
  0
VERTEX
  5
28EF
  8
LAYER_1
  6
CONTINUOUS
 10
18306.308000000001
 20
18642.617999999999
 30
0.0
  0
VERTEX
  5
28F0
  8
LAYER_1
  6
CONTINUOUS
 10
18339.692999999999
 20
18562.02
 30
0.0
  0
VERTEX
  5
28F1
  8
LAYER_1
  6
CONTINUOUS
 10
18365.925999999999
 20
18478.819
 30
0.0
  0
VERTEX
  5
28F2
  8
LAYER_1
  6
CONTINUOUS
 10
18384.808000000001
 20
18393.648000000001
 30
0.0
  0
VERTEX
  5
28F3
  8
LAYER_1
  6
CONTINUOUS
 10
18396.195
 20
18307.155999999999
 30
0.0
  0
VERTEX
  5
28F4
  8
LAYER_1
  6
CONTINUOUS
 10
18400.0
 20
18220.0
 30
0.0
  0
VERTEX
  5
28F5
  8
LAYER_1
  6
CONTINUOUS
 10
18396.195
 20
18132.844000000001
 30
0.0
  0
VERTEX
  5
28F6
  8
LAYER_1
  6
CONTINUOUS
 10
18384.808000000001
 20
18046.351999999999
 30
0.0
  0
VERTEX
  5
28F7
  8
LAYER_1
  6
CONTINUOUS
 10
18365.925999999999
 20
17961.181
 30
0.0
  0
VERTEX
  5
28F8
  8
LAYER_1
  6
CONTINUOUS
 10
18339.692999999999
 20
17877.98
 30
0.0
  0
VERTEX
  5
28F9
  8
LAYER_1
  6
CONTINUOUS
 10
18306.308000000001
 20
17797.382000000001
 30
0.0
  0
VERTEX
  5
28FA
  8
LAYER_1
  6
CONTINUOUS
 10
18266.025000000001
 20
17720.0
 30
0.0
  0
VERTEX
  5
28FB
  8
LAYER_1
  6
CONTINUOUS
 10
18219.151999999998
 20
17646.423999999999
 30
0.0
  0
VERTEX
  5
28FC
  8
LAYER_1
  6
CONTINUOUS
 10
18166.044000000002
 20
17577.212
 30
0.0
  0
VERTEX
  5
28FD
  8
LAYER_1
  6
CONTINUOUS
 10
18107.107
 20
17512.893
 30
0.0
  0
VERTEX
  5
28FE
  8
LAYER_1
  6
CONTINUOUS
 10
18042.788
 20
17453.955999999998
 30
0.0
  0
VERTEX
  5
28FF
  8
LAYER_1
  6
CONTINUOUS
 10
17973.576000000001
 20
17400.848000000002
 30
0.0
  0
VERTEX
  5
2900
  8
LAYER_1
  6
CONTINUOUS
 10
17900.0
 20
17353.974999999999
 30
0.0
  0
VERTEX
  5
2901
  8
LAYER_1
  6
CONTINUOUS
 10
17822.617999999999
 20
17313.691999999999
 30
0.0
  0
VERTEX
  5
2902
  8
LAYER_1
  6
CONTINUOUS
 10
17742.02
 20
17280.307000000001
 30
0.0
  0
VERTEX
  5
2903
  8
LAYER_1
  6
CONTINUOUS
 10
17658.819
 20
17254.074000000001
 30
0.0
  0
VERTEX
  5
2904
  8
LAYER_1
  6
CONTINUOUS
 10
17573.648000000001
 20
17235.191999999999
 30
0.0
  0
VERTEX
  5
2905
  8
LAYER_1
  6
CONTINUOUS
 10
17487.155999999999
 20
17223.805
 30
0.0
  0
VERTEX
  5
2906
  8
LAYER_1
  6
CONTINUOUS
 10
17400.0
 20
17220.0
 30
0.0
  0
VERTEX
  5
2907
  8
LAYER_1
  6
CONTINUOUS
 10
17312.844000000001
 20
17223.805
 30
0.0
  0
VERTEX
  5
2908
  8
LAYER_1
  6
CONTINUOUS
 10
17226.351999999999
 20
17235.191999999999
 30
0.0
  0
VERTEX
  5
2909
  8
LAYER_1
  6
CONTINUOUS
 10
17141.181
 20
17254.074000000001
 30
0.0
  0
VERTEX
  5
290A
  8
LAYER_1
  6
CONTINUOUS
 10
17057.98
 20
17280.307000000001
 30
0.0
  0
VERTEX
  5
290B
  8
LAYER_1
  6
CONTINUOUS
 10
17035.402999999998
 20
17289.659
 30
0.0
  0
VERTEX
  5
290C
  8
LAYER_1
  6
CONTINUOUS
 10
16900.0
 20
17151.873
 30
0.0
  0
VERTEX
  5
290D
  8
LAYER_1
  6
CONTINUOUS
 10
16900.0
 20
19086.025000000001
 30
0.0
  0
VERTEX
  5
290E
  8
LAYER_1
  6
CONTINUOUS
 10
16977.382000000001
 20
19126.308000000001
 30
0.0
  0
VERTEX
  5
290F
  8
LAYER_1
  6
CONTINUOUS
 10
17057.98
 20
19159.692999999999
 30
0.0
  0
VERTEX
  5
2910
  8
LAYER_1
  6
CONTINUOUS
 10
17141.181
 20
19185.925999999999
 30
0.0
  0
VERTEX
  5
2911
  8
LAYER_1
  6
CONTINUOUS
 10
17226.351999999999
 20
19204.808000000001
 30
0.0
  0
SEQEND
  5
2912
  8
LAYER_1
  6
CONTINUOUS
  0
POLYLINE
  5
533
  8
LAYER_1
  6
CONTINUOUS
 66
     1
 10
0.0
 20
0.0
 30
0.0
 70
     1
  0
VERTEX
  5
2913
  8
LAYER_1
  6
CONTINUOUS
 10
18826.351999999999
 20
16004.808000000001
 30
0.0
  0
VERTEX
  5
2914
  8
LAYER_1
  6
CONTINUOUS
 10
18912.844000000001
 20
16016.195
 30
0.0
  0
VERTEX
  5
2915
  8
LAYER_1
  6
CONTINUOUS
 10
19000.0
 20
16020.0
 30
0.0
  0
VERTEX
  5
2916
  8
LAYER_1
  6
CONTINUOUS
 10
19087.155999999999
 20
16016.195
 30
0.0
  0
VERTEX
  5
2917
  8
LAYER_1
  6
CONTINUOUS
 10
19173.648000000001
 20
16004.808000000001
 30
0.0
  0
VERTEX
  5
2918
  8
LAYER_1
  6
CONTINUOUS
 10
19258.819
 20
15985.925999999999
 30
0.0
  0
VERTEX
  5
2919
  8
LAYER_1
  6
CONTINUOUS
 10
19342.02
 20
15959.692999999999
 30
0.0
  0
VERTEX
  5
291A
  8
LAYER_1
  6
CONTINUOUS
 10
19422.617999999999
 20
15926.308000000001
 30
0.0
  0
VERTEX
  5
291B
  8
LAYER_1
  6
CONTINUOUS
 10
19500.0
 20
15886.025
 30
0.0
  0
VERTEX
  5
291C
  8
LAYER_1
  6
CONTINUOUS
 10
19573.576000000001
 20
15839.152
 30
0.0
  0
VERTEX
  5
291D
  8
LAYER_1
  6
CONTINUOUS
 10
19642.788
 20
15786.044
 30
0.0
  0
VERTEX
  5
291E
  8
LAYER_1
  6
CONTINUOUS
 10
19707.107
 20
15727.107
 30
0.0
  0
VERTEX
  5
291F
  8
LAYER_1
  6
CONTINUOUS
 10
19766.044000000002
 20
15662.788
 30
0.0
  0
VERTEX
  5
2920
  8
LAYER_1
  6
CONTINUOUS
 10
19819.151999999998
 20
15593.575999999999
 30
0.0
  0
VERTEX
  5
2921
  8
LAYER_1
  6
CONTINUOUS
 10
19866.025000000001
 20
15520.0
 30
0.0
  0
VERTEX
  5
2922
  8
LAYER_1
  6
CONTINUOUS
 10
19906.308000000001
 20
15442.618
 30
0.0
  0
VERTEX
  5
2923
  8
LAYER_1
  6
CONTINUOUS
 10
19939.692999999999
 20
15362.02
 30
0.0
  0
VERTEX
  5
2924
  8
LAYER_1
  6
CONTINUOUS
 10
19965.925999999999
 20
15278.819
 30
0.0
  0
VERTEX
  5
2925
  8
LAYER_1
  6
CONTINUOUS
 10
19984.808000000001
 20
15193.647999999999
 30
0.0
  0
VERTEX
  5
2926
  8
LAYER_1
  6
CONTINUOUS
 10
19996.195
 20
15107.156000000001
 30
0.0
  0
VERTEX
  5
2927
  8
LAYER_1
  6
CONTINUOUS
 10
20000.0
 20
15020.0
 30
0.0
  0
VERTEX
  5
2928
  8
LAYER_1
  6
CONTINUOUS
 10
19996.195
 20
14932.843999999999
 30
0.0
  0
VERTEX
  5
2929
  8
LAYER_1
  6
CONTINUOUS
 10
19984.808000000001
 20
14846.352000000001
 30
0.0
  0
VERTEX
  5
292A
  8
LAYER_1
  6
CONTINUOUS
 10
19965.925999999999
 20
14761.181
 30
0.0
  0
VERTEX
  5
292B
  8
LAYER_1
  6
CONTINUOUS
 10
19939.692999999999
 20
14677.98
 30
0.0
  0
VERTEX
  5
292C
  8
LAYER_1
  6
CONTINUOUS
 10
19906.308000000001
 20
14597.382
 30
0.0
  0
VERTEX
  5
292D
  8
LAYER_1
  6
CONTINUOUS
 10
19866.025000000001
 20
14520.0
 30
0.0
  0
VERTEX
  5
292E
  8
LAYER_1
  6
CONTINUOUS
 10
19819.151999999998
 20
14446.424000000001
 30
0.0
  0
VERTEX
  5
292F
  8
LAYER_1
  6
CONTINUOUS
 10
19766.044000000002
 20
14377.212
 30
0.0
  0
VERTEX
  5
2930
  8
LAYER_1
  6
CONTINUOUS
 10
19707.107
 20
14312.893
 30
0.0
  0
VERTEX
  5
2931
  8
LAYER_1
  6
CONTINUOUS
 10
19642.788
 20
14253.956
 30
0.0
  0
VERTEX
  5
2932
  8
LAYER_1
  6
CONTINUOUS
 10
19573.576000000001
 20
14200.848
 30
0.0
  0
VERTEX
  5
2933
  8
LAYER_1
  6
CONTINUOUS
 10
19500.0
 20
14153.975
 30
0.0
  0
VERTEX
  5
2934
  8
LAYER_1
  6
CONTINUOUS
 10
19422.617999999999
 20
14113.691999999999
 30
0.0
  0
VERTEX
  5
2935
  8
LAYER_1
  6
CONTINUOUS
 10
19342.02
 20
14080.307000000001
 30
0.0
  0
VERTEX
  5
2936
  8
LAYER_1
  6
CONTINUOUS
 10
19258.819
 20
14054.074000000001
 30
0.0
  0
VERTEX
  5
2937
  8
LAYER_1
  6
CONTINUOUS
 10
19173.648000000001
 20
14035.191999999999
 30
0.0
  0
VERTEX
  5
2938
  8
LAYER_1
  6
CONTINUOUS
 10
19087.155999999999
 20
14023.805
 30
0.0
  0
VERTEX
  5
2939
  8
LAYER_1
  6
CONTINUOUS
 10
19000.0
 20
14020.0
 30
0.0
  0
VERTEX
  5
293A
  8
LAYER_1
  6
CONTINUOUS
 10
18912.844000000001
 20
14023.805
 30
0.0
  0
VERTEX
  5
293B
  8
LAYER_1
  6
CONTINUOUS
 10
18826.351999999999
 20
14035.191999999999
 30
0.0
  0
VERTEX
  5
293C
  8
LAYER_1
  6
CONTINUOUS
 10
18741.181
 20
14054.074000000001
 30
0.0
  0
VERTEX
  5
293D
  8
LAYER_1
  6
CONTINUOUS
 10
18657.98
 20
14080.307000000001
 30
0.0
  0
VERTEX
  5
293E
  8
LAYER_1
  6
CONTINUOUS
 10
18577.382000000001
 20
14113.691999999999
 30
0.0
  0
VERTEX
  5
293F
  8
LAYER_1
  6
CONTINUOUS
 10
18500.0
 20
14153.975
 30
0.0
  0
VERTEX
  5
2940
  8
LAYER_1
  6
CONTINUOUS
 10
18426.423999999999
 20
14200.848
 30
0.0
  0
VERTEX
  5
2941
  8
LAYER_1
  6
CONTINUOUS
 10
18357.212
 20
14253.956
 30
0.0
  0
VERTEX
  5
2942
  8
LAYER_1
  6
CONTINUOUS
 10
18292.893
 20
14312.893
 30
0.0
  0
VERTEX
  5
2943
  8
LAYER_1
  6
CONTINUOUS
 10
18233.955999999998
 20
14377.212
 30
0.0
  0
VERTEX
  5
2944
  8
LAYER_1
  6
CONTINUOUS
 10
18180.848000000002
 20
14446.424000000001
 30
0.0
  0
VERTEX
  5
2945
  8
LAYER_1
  6
CONTINUOUS
 10
18133.974999999999
 20
14520.0
 30
0.0
  0
VERTEX
  5
2946
  8
LAYER_1
  6
CONTINUOUS
 10
18093.691999999999
 20
14597.382
 30
0.0
  0
VERTEX
  5
2947
  8
LAYER_1
  6
CONTINUOUS
 10
18060.307000000001
 20
14677.98
 30
0.0
  0
VERTEX
  5
2948
  8
LAYER_1
  6
CONTINUOUS
 10
18034.074000000001
 20
14761.181
 30
0.0
  0
VERTEX
  5
2949
  8
LAYER_1
  6
CONTINUOUS
 10
18015.191999999999
 20
14846.352000000001
 30
0.0
  0
VERTEX
  5
294A
  8
LAYER_1
  6
CONTINUOUS
 10
18003.805
 20
14932.843999999999
 30
0.0
  0
VERTEX
  5
294B
  8
LAYER_1
  6
CONTINUOUS
 10
18000.0
 20
15020.0
 30
0.0
  0
VERTEX
  5
294C
  8
LAYER_1
  6
CONTINUOUS
 10
18003.805
 20
15107.156000000001
 30
0.0
  0
VERTEX
  5
294D
  8
LAYER_1
  6
CONTINUOUS
 10
18008.629000000001
 20
15143.796
 30
0.0
  0
VERTEX
  5
294E
  8
LAYER_1
  6
CONTINUOUS
 10
16900.0
 20
14889.644
 30
0.0
  0
VERTEX
  5
294F
  8
LAYER_1
  6
CONTINUOUS
 10
16900.0
 20
15521.91
 30
0.0
  0
VERTEX
  5
2950
  8
LAYER_1
  6
CONTINUOUS
 10
18690.0
 20
15970.0
 30
0.0
  0
VERTEX
  5
2951
  8
LAYER_1
  6
CONTINUOUS
 10
18690.0
 20
15969.789000000001
 30
0.0
  0
VERTEX
  5
2952
  8
LAYER_1
  6
CONTINUOUS
 10
18741.181
 20
15985.925999999999
 30
0.0
  0
VERTEX
  5
2953
  8
LAYER_1
  6
CONTINUOUS
 10
18826.351999999999
 20
16004.808000000001
 30
0.0
  0
SEQEND
  5
2954
  8
LAYER_1
  6
CONTINUOUS
  0
ENDBLK
  5
535
  8
0
  0
BLOCK
  8
0
  2
*U2
 70
     1
 10
0.0
 20
0.0
 30
0.0
  3
*U2
  1

  0
SOLID
  5
2956
  8
0
  6
CONTINUOUS
 10
-14474.07494558818
 20
14676.874663363949
 30
0.0
 11
-15800.87494558819
 21
14675.195653443259
 31
0.0
 12
-14474.07494558818
 22
14675.195653443259
 32
0.0
 13
-14474.07494558818
 23
14675.195653443259
 33
0.0
210
0.0
220
0.0
230
-1.0
  0
SOLID
  5
2957
  8
0
  6
CONTINUOUS
 10
-22251.435976267101
 20
19205.835694042878
 30
0.0
 11
-16887.47494558819
 21
12841.874663363949
 31
0.0
 12
-15887.474945588179
 22
12841.874663363949
 32
0.0
 13
-15887.474945588179
 23
12841.874663363949
 33
0.0
210
0.0
220
0.0
230
-1.0
  0
SOLID
  5
2958
  8
0
  6
CONTINUOUS
 10
-22251.435976267101
 20
19205.835694042878
 30
0.0
 11
-23251.435976267101
 21
19205.835694042878
 31
0.0
 12
-16887.47494558819
 22
12841.874663363949
 32
0.0
 13
-16887.47494558819
 23
12841.874663363949
 33
0.0
210
0.0
220
0.0
230
-1.0
  0
SOLID
  5
2959
  8
0
  6
CONTINUOUS
 10
-7023.5139149092647
 20
19205.835694042878
 30
0.0
 11
-14387.47494558819
 21
12841.874663363949
 31
0.0
 12
-13387.474945588179
 22
12841.874663363949
 32
0.0
 13
-13387.474945588179
 23
12841.874663363949
 33
0.0
210
0.0
220
0.0
230
-1.0
  0
SOLID
  5
295A
  8
0
  6
CONTINUOUS
 10
-7023.5139149092647
 20
19205.835694042878
 30
0.0
 11
-8023.5139149092638
 21
19205.835694042878
 31
0.0
 12
-14387.47494558819
 22
12841.874663363949
 32
0.0
 13
-14387.47494558819
 23
12841.874663363949
 33
0.0
210
0.0
220
0.0
230
-1.0
  0
SOLID
  5
295B
  8
0
  6
CONTINUOUS
 10
-15887.474945588179
 20
12841.874663363949
 30
0.0
 11
-16887.47494558819
 21
11866.874663363949
 31
0.0
 12
-15887.474945588179
 22
11866.874663363949
 32
0.0
 13
-15887.474945588179
 23
11866.874663363949
 33
0.0
210
0.0
220
0.0
230
-1.0
  0
SOLID
  5
295C
  8
0
  6
CONTINUOUS
 10
-15887.474945588179
 20
12841.874663363949
 30
0.0
 11
-16887.47494558819
 21
12841.874663363949
 31
0.0
 12
-16887.47494558819
 22
11866.874663363949
 32
0.0
 13
-16887.47494558819
 23
11866.874663363949
 33
0.0
210
0.0
220
0.0
230
-1.0
  0
SOLID
  5
295D
  8
0
  6
CONTINUOUS
 10
-14474.07494558818
 20
14675.195653443259
 30
0.0
 11
-15800.87494558819
 21
11866.874663363949
 31
0.0
 12
-14474.07494558818
 22
11866.874663363949
 32
0.0
 13
-14474.07494558818
 23
11866.874663363949
 33
0.0
210
0.0
220
0.0
230
-1.0
  0
SOLID
  5
295E
  8
0
  6
CONTINUOUS
 10
-14474.07494558818
 20
14675.195653443259
 30
0.0
 11
-15800.87494558819
 21
14675.195653443259
 31
0.0
 12
-15800.87494558819
 22
11866.874663363949
 32
0.0
 13
-15800.87494558819
 23
11866.874663363949
 33
0.0
210
0.0
220
0.0
230
-1.0
  0
SOLID
  5
295F
  8
0
  6
CONTINUOUS
 10
-13387.474945588179
 20
12841.874663363949
 30
0.0
 11
-14387.47494558819
 21
11866.874663363949
 31
0.0
 12
-13387.474945588179
 22
11866.874663363949
 32
0.0
 13
-13387.474945588179
 23
11866.874663363949
 33
0.0
210
0.0
220
0.0
230
-1.0
  0
SOLID
  5
2960
  8
0
  6
CONTINUOUS
 10
-13387.474945588179
 20
12841.874663363949
 30
0.0
 11
-14387.47494558819
 21
12841.874663363949
 31
0.0
 12
-14387.47494558819
 22
11866.874663363949
 32
0.0
 13
-14387.47494558819
 23
11866.874663363949
 33
0.0
210
0.0
220
0.0
230
-1.0
  0
SOLID
  5
2961
  8
0
  6
CONTINUOUS
 10
-15887.474945588179
 20
11866.874663363949
 30
0.0
 11
-16887.47494558819
 21
11841.874663363949
 31
0.0
 12
-15887.474945588179
 22
11841.874663363949
 32
0.0
 13
-15887.474945588179
 23
11841.874663363949
 33
0.0
210
0.0
220
0.0
230
-1.0
  0
SOLID
  5
2962
  8
0
  6
CONTINUOUS
 10
-15887.474945588179
 20
11866.874663363949
 30
0.0
 11
-16887.47494558819
 21
11866.874663363949
 31
0.0
 12
-16887.47494558819
 22
11841.874663363949
 32
0.0
 13
-16887.47494558819
 23
11841.874663363949
 33
0.0
210
0.0
220
0.0
230
-1.0
  0
SOLID
  5
2963
  8
0
  6
CONTINUOUS
 10
-14474.07494558818
 20
11866.874663363949
 30
0.0
 11
-15887.474945588179
 21
11841.874663363949
 31
0.0
 12
-14387.47494558819
 22
11841.874663363949
 32
0.0
 13
-14387.47494558819
 23
11841.874663363949
 33
0.0
210
0.0
220
0.0
230
-1.0
  0
SOLID
  5
2964
  8
0
  6
CONTINUOUS
 10
-14474.07494558818
 20
11866.874663363949
 30
0.0
 11
-15800.87494558819
 21
11866.874663363949
 31
0.0
 12
-15887.474945588179
 22
11841.874663363949
 32
0.0
 13
-15887.474945588179
 23
11841.874663363949
 33
0.0
210
0.0
220
0.0
230
-1.0
  0
SOLID
  5
2965
  8
0
  6
CONTINUOUS
 10
-13387.474945588179
 20
11866.874663363949
 30
0.0
 11
-14387.47494558819
 21
11841.874663363949
 31
0.0
 12
-13387.474945588179
 22
11841.874663363949
 32
0.0
 13
-13387.474945588179
 23
11841.874663363949
 33
0.0
210
0.0
220
0.0
230
-1.0
  0
SOLID
  5
2966
  8
0
  6
CONTINUOUS
 10
-13387.474945588179
 20
11866.874663363949
 30
0.0
 11
-14387.47494558819
 21
11866.874663363949
 31
0.0
 12
-14387.47494558819
 22
11841.874663363949
 32
0.0
 13
-14387.47494558819
 23
11841.874663363949
 33
0.0
210
0.0
220
0.0
230
-1.0
  0
SOLID
  5
2967
  8
0
  6
CONTINUOUS
 10
-13387.474945588179
 20
11841.874663363949
 30
0.0
 11
-16887.47494558819
 21
11741.874663363949
 31
0.0
 12
-13387.474945588179
 22
11741.874663363949
 32
0.0
 13
-13387.474945588179
 23
11741.874663363949
 33
0.0
210
0.0
220
0.0
230
-1.0
  0
SOLID
  5
2968
  8
0
  6
CONTINUOUS
 10
-13387.474945588179
 20
11841.874663363949
 30
0.0
 11
-16887.47494558819
 21
11841.874663363949
 31
0.0
 12
-16887.47494558819
 22
11741.874663363949
 32
0.0
 13
-16887.47494558819
 23
11741.874663363949
 33
0.0
210
0.0
220
0.0
230
-1.0
  0
SOLID
  5
2969
  8
0
  6
CONTINUOUS
 10
-14387.47494558819
 20
11741.874663363949
 30
0.0
 11
-15800.87494558819
 21
11716.874663363949
 31
0.0
 12
-14474.07494558818
 22
11716.874663363949
 32
0.0
 13
-14474.07494558818
 23
11716.874663363949
 33
0.0
210
0.0
220
0.0
230
-1.0
  0
SOLID
  5
296A
  8
0
  6
CONTINUOUS
 10
-14387.47494558819
 20
11741.874663363949
 30
0.0
 11
-15887.474945588179
 21
11741.874663363949
 31
0.0
 12
-15800.87494558819
 22
11716.874663363949
 32
0.0
 13
-15800.87494558819
 23
11716.874663363949
 33
0.0
210
0.0
220
0.0
230
-1.0
  0
SOLID
  5
296B
  8
0
  6
CONTINUOUS
 10
-15887.474945588179
 20
11741.874663363949
 30
0.0
 11
-16887.47494558819
 21
11666.874663363949
 31
0.0
 12
-15887.474945588179
 22
11666.874663363949
 32
0.0
 13
-15887.474945588179
 23
11666.874663363949
 33
0.0
210
0.0
220
0.0
230
-1.0
  0
SOLID
  5
296C
  8
0
  6
CONTINUOUS
 10
-15887.474945588179
 20
11741.874663363949
 30
0.0
 11
-16887.47494558819
 21
11741.874663363949
 31
0.0
 12
-16887.47494558819
 22
11666.874663363949
 32
0.0
 13
-16887.47494558819
 23
11666.874663363949
 33
0.0
210
0.0
220
0.0
230
-1.0
  0
SOLID
  5
296D
  8
0
  6
CONTINUOUS
 10
-14474.07494558818
 20
11716.874663363949
 30
0.0
 11
-15800.87494558819
 21
11666.874663363949
 31
0.0
 12
-14474.07494558818
 22
11666.874663363949
 32
0.0
 13
-14474.07494558818
 23
11666.874663363949
 33
0.0
210
0.0
220
0.0
230
-1.0
  0
SOLID
  5
296E
  8
0
  6
CONTINUOUS
 10
-14474.07494558818
 20
11716.874663363949
 30
0.0
 11
-15800.87494558819
 21
11716.874663363949
 31
0.0
 12
-15800.87494558819
 22
11666.874663363949
 32
0.0
 13
-15800.87494558819
 23
11666.874663363949
 33
0.0
210
0.0
220
0.0
230
-1.0
  0
SOLID
  5
296F
  8
0
  6
CONTINUOUS
 10
-15887.474945588179
 20
11666.874663363949
 30
0.0
 11
-16887.47494558819
 21
11641.874663363949
 31
0.0
 12
-15887.474945588179
 22
11641.874663363949
 32
0.0
 13
-15887.474945588179
 23
11641.874663363949
 33
0.0
210
0.0
220
0.0
230
-1.0
  0
SOLID
  5
2970
  8
0
  6
CONTINUOUS
 10
-15887.474945588179
 20
11666.874663363949
 30
0.0
 11
-16887.47494558819
 21
11666.874663363949
 31
0.0
 12
-16887.47494558819
 22
11641.874663363949
 32
0.0
 13
-16887.47494558819
 23
11641.874663363949
 33
0.0
210
0.0
220
0.0
230
-1.0
  0
SOLID
  5
2971
  8
0
  6
CONTINUOUS
 10
-14474.07494558818
 20
11666.874663363949
 30
0.0
 11
-15887.474945588179
 21
11641.874663363949
 31
0.0
 12
-14387.47494558819
 22
11641.874663363949
 32
0.0
 13
-14387.47494558819
 23
11641.874663363949
 33
0.0
210
0.0
220
0.0
230
-1.0
  0
SOLID
  5
2972
  8
0
  6
CONTINUOUS
 10
-14474.07494558818
 20
11666.874663363949
 30
0.0
 11
-15800.87494558819
 21
11666.874663363949
 31
0.0
 12
-15887.474945588179
 22
11641.874663363949
 32
0.0
 13
-15887.474945588179
 23
11641.874663363949
 33
0.0
210
0.0
220
0.0
230
-1.0
  0
SOLID
  5
2973
  8
0
  6
CONTINUOUS
 10
-13387.474945588179
 20
11741.874663363949
 30
0.0
 11
-14387.47494558819
 21
11641.874663363949
 31
0.0
 12
-13387.474945588179
 22
11641.874663363949
 32
0.0
 13
-13387.474945588179
 23
11641.874663363949
 33
0.0
210
0.0
220
0.0
230
-1.0
  0
SOLID
  5
2974
  8
0
  6
CONTINUOUS
 10
-13387.474945588179
 20
11741.874663363949
 30
0.0
 11
-14387.47494558819
 21
11741.874663363949
 31
0.0
 12
-14387.47494558819
 22
11641.874663363949
 32
0.0
 13
-14387.47494558819
 23
11641.874663363949
 33
0.0
210
0.0
220
0.0
230
-1.0
  0
SOLID
  5
2975
  8
0
  6
CONTINUOUS
 10
-13387.474945588179
 20
11641.874663363949
 30
0.0
 11
-16887.47494558819
 21
11541.874663363949
 31
0.0
 12
-13387.474945588179
 22
11541.874663363949
 32
0.0
 13
-13387.474945588179
 23
11541.874663363949
 33
0.0
210
0.0
220
0.0
230
-1.0
  0
SOLID
  5
2976
  8
0
  6
CONTINUOUS
 10
-13387.474945588179
 20
11641.874663363949
 30
0.0
 11
-16887.47494558819
 21
11641.874663363949
 31
0.0
 12
-16887.47494558819
 22
11541.874663363949
 32
0.0
 13
-16887.47494558819
 23
11541.874663363949
 33
0.0
210
0.0
220
0.0
230
-1.0
  0
SOLID
  5
2977
  8
0
  6
CONTINUOUS
 10
-14387.47494558819
 20
11541.874663363949
 30
0.0
 11
-15800.87494558819
 21
11516.874663363949
 31
0.0
 12
-14474.07494558818
 22
11516.874663363949
 32
0.0
 13
-14474.07494558818
 23
11516.874663363949
 33
0.0
210
0.0
220
0.0
230
-1.0
  0
SOLID
  5
2978
  8
0
  6
CONTINUOUS
 10
-14387.47494558819
 20
11541.874663363949
 30
0.0
 11
-15887.474945588179
 21
11541.874663363949
 31
0.0
 12
-15800.87494558819
 22
11516.874663363949
 32
0.0
 13
-15800.87494558819
 23
11516.874663363949
 33
0.0
210
0.0
220
0.0
230
-1.0
  0
SOLID
  5
2979
  8
0
  6
CONTINUOUS
 10
-15887.474945588179
 20
11541.874663363949
 30
0.0
 11
-16887.47494558819
 21
11466.874663363949
 31
0.0
 12
-15887.474945588179
 22
11466.874663363949
 32
0.0
 13
-15887.474945588179
 23
11466.874663363949
 33
0.0
210
0.0
220
0.0
230
-1.0
  0
SOLID
  5
297A
  8
0
  6
CONTINUOUS
 10
-15887.474945588179
 20
11541.874663363949
 30
0.0
 11
-16887.47494558819
 21
11541.874663363949
 31
0.0
 12
-16887.47494558819
 22
11466.874663363949
 32
0.0
 13
-16887.47494558819
 23
11466.874663363949
 33
0.0
210
0.0
220
0.0
230
-1.0
  0
SOLID
  5
297B
  8
0
  6
CONTINUOUS
 10
-14474.07494558818
 20
11516.874663363949
 30
0.0
 11
-15800.87494558819
 21
11466.874663363949
 31
0.0
 12
-14474.07494558818
 22
11466.874663363949
 32
0.0
 13
-14474.07494558818
 23
11466.874663363949
 33
0.0
210
0.0
220
0.0
230
-1.0
  0
SOLID
  5
297C
  8
0
  6
CONTINUOUS
 10
-14474.07494558818
 20
11516.874663363949
 30
0.0
 11
-15800.87494558819
 21
11516.874663363949
 31
0.0
 12
-15800.87494558819
 22
11466.874663363949
 32
0.0
 13
-15800.87494558819
 23
11466.874663363949
 33
0.0
210
0.0
220
0.0
230
-1.0
  0
SOLID
  5
297D
  8
0
  6
CONTINUOUS
 10
-15887.474945588179
 20
11466.874663363949
 30
0.0
 11
-16887.47494558819
 21
11441.874663363949
 31
0.0
 12
-15887.474945588179
 22
11441.874663363949
 32
0.0
 13
-15887.474945588179
 23
11441.874663363949
 33
0.0
210
0.0
220
0.0
230
-1.0
  0
SOLID
  5
297E
  8
0
  6
CONTINUOUS
 10
-15887.474945588179
 20
11466.874663363949
 30
0.0
 11
-16887.47494558819
 21
11466.874663363949
 31
0.0
 12
-16887.47494558819
 22
11441.874663363949
 32
0.0
 13
-16887.47494558819
 23
11441.874663363949
 33
0.0
210
0.0
220
0.0
230
-1.0
  0
SOLID
  5
297F
  8
0
  6
CONTINUOUS
 10
-14474.07494558818
 20
11466.874663363949
 30
0.0
 11
-15887.474945588179
 21
11441.874663363949
 31
0.0
 12
-14387.47494558819
 22
11441.874663363949
 32
0.0
 13
-14387.47494558819
 23
11441.874663363949
 33
0.0
210
0.0
220
0.0
230
-1.0
  0
SOLID
  5
2980
  8
0
  6
CONTINUOUS
 10
-14474.07494558818
 20
11466.874663363949
 30
0.0
 11
-15800.87494558819
 21
11466.874663363949
 31
0.0
 12
-15887.474945588179
 22
11441.874663363949
 32
0.0
 13
-15887.474945588179
 23
11441.874663363949
 33
0.0
210
0.0
220
0.0
230
-1.0
  0
SOLID
  5
2981
  8
0
  6
CONTINUOUS
 10
-13387.474945588179
 20
11541.874663363949
 30
0.0
 11
-14387.47494558819
 21
11441.874663363949
 31
0.0
 12
-13387.474945588179
 22
11441.874663363949
 32
0.0
 13
-13387.474945588179
 23
11441.874663363949
 33
0.0
210
0.0
220
0.0
230
-1.0
  0
SOLID
  5
2982
  8
0
  6
CONTINUOUS
 10
-13387.474945588179
 20
11541.874663363949
 30
0.0
 11
-14387.47494558819
 21
11541.874663363949
 31
0.0
 12
-14387.47494558819
 22
11441.874663363949
 32
0.0
 13
-14387.47494558819
 23
11441.874663363949
 33
0.0
210
0.0
220
0.0
230
-1.0
  0
SOLID
  5
2983
  8
0
  6
CONTINUOUS
 10
-13387.474945588179
 20
11441.874663363949
 30
0.0
 11
-16887.47494558819
 21
11391.77677403805
 31
0.0
 12
-13387.474945588179
 22
11391.77677403805
 32
0.0
 13
-13387.474945588179
 23
11391.77677403805
 33
0.0
210
0.0
220
0.0
230
-1.0
  0
SOLID
  5
2984
  8
0
  6
CONTINUOUS
 10
-13387.474945588179
 20
11441.874663363949
 30
0.0
 11
-16887.47494558819
 21
11441.874663363949
 31
0.0
 12
-16887.47494558819
 22
11391.77677403805
 32
0.0
 13
-16887.47494558819
 23
11391.77677403805
 33
0.0
210
0.0
220
0.0
230
-1.0
  0
SOLID
  5
2985
  8
0
  6
CONTINUOUS
 10
-15146.32378044946
 20
11391.77677403805
 30
0.0
 11
-16887.47494558819
 21
11390.993946876981
 31
0.0
 12
-15164.004128162231
 22
11390.993946876981
 32
0.0
 13
-15164.004128162231
 23
11390.993946876981
 33
0.0
210
0.0
220
0.0
230
-1.0
  0
SOLID
  5
2986
  8
0
  6
CONTINUOUS
 10
-15146.32378044946
 20
11391.77677403805
 30
0.0
 11
-16887.47494558819
 21
11391.77677403805
 31
0.0
 12
-16887.47494558819
 22
11390.993946876981
 32
0.0
 13
-16887.47494558819
 23
11390.993946876981
 33
0.0
210
0.0
220
0.0
230
-1.0
  0
SOLID
  5
2987
  8
0
  6
CONTINUOUS
 10
-13387.474945588179
 20
11391.77677403805
 30
0.0
 11
-15110.945763014141
 21
11390.993946876981
 31
0.0
 12
-13387.474945588179
 22
11390.993946876981
 32
0.0
 13
-13387.474945588179
 23
11390.993946876981
 33
0.0
210
0.0
220
0.0
230
-1.0
  0
SOLID
  5
2988
  8
0
  6
CONTINUOUS
 10
-13387.474945588179
 20
11391.77677403805
 30
0.0
 11
-15128.626110726909
 21
11391.77677403805
 31
0.0
 12
-15110.945763014141
 22
11390.993946876981
 32
0.0
 13
-15110.945763014141
 23
11390.993946876981
 33
0.0
210
0.0
220
0.0
230
-1.0
  0
SOLID
  5
2989
  8
0
  6
CONTINUOUS
 10
-15164.004128162231
 20
11390.993946876981
 30
0.0
 11
-16887.47494558819
 21
11389.42982497577
 31
0.0
 12
-15181.632543754289
 22
11389.42982497577
 32
0.0
 13
-15181.632543754289
 23
11389.42982497577
 33
0.0
210
0.0
220
0.0
230
-1.0
  0
SOLID
  5
298A
  8
0
  6
CONTINUOUS
 10
-15164.004128162231
 20
11390.993946876981
 30
0.0
 11
-16887.47494558819
 21
11390.993946876981
 31
0.0
 12
-16887.47494558819
 22
11389.42982497577
 32
0.0
 13
-16887.47494558819
 23
11389.42982497577
 33
0.0
210
0.0
220
0.0
230
-1.0
  0
SOLID
  5
298B
  8
0
  6
CONTINUOUS
 10
-13387.474945588179
 20
11390.993946876981
 30
0.0
 11
-15093.31734742206
 21
11389.42982497577
 31
0.0
 12
-13387.474945588179
 22
11389.42982497577
 32
0.0
 13
-13387.474945588179
 23
11389.42982497577
 33
0.0
210
0.0
220
0.0
230
-1.0
  0
SOLID
  5
298C
  8
0
  6
CONTINUOUS
 10
-13387.474945588179
 20
11390.993946876981
 30
0.0
 11
-15110.945763014141
 21
11390.993946876981
 31
0.0
 12
-15093.31734742206
 22
11389.42982497577
 32
0.0
 13
-15093.31734742206
 23
11389.42982497577
 33
0.0
210
0.0
220
0.0
230
-1.0
  0
SOLID
  5
298D
  8
0
  6
CONTINUOUS
 10
-15181.632543754289
 20
11389.42982497577
 30
0.0
 11
-16887.47494558819
 21
11387.087470176501
 31
0.0
 12
-15199.1745187743
 22
11387.087470176501
 32
0.0
 13
-15199.1745187743
 23
11387.087470176501
 33
0.0
210
0.0
220
0.0
230
-1.0
  0
SOLID
  5
298E
  8
0
  6
CONTINUOUS
 10
-15181.632543754289
 20
11389.42982497577
 30
0.0
 11
-16887.47494558819
 21
11389.42982497577
 31
0.0
 12
-16887.47494558819
 22
11387.087470176501
 32
0.0
 13
-16887.47494558819
 23
11387.087470176501
 33
0.0
210
0.0
220
0.0
230
-1.0
  0
SOLID
  5
298F
  8
0
  6
CONTINUOUS
 10
-13387.474945588179
 20
11389.42982497577
 30
0.0
 11
-15075.77537240206
 21
11387.087470176501
 31
0.0
 12
-13387.474945588179
 22
11387.087470176501
 32
0.0
 13
-13387.474945588179
 23
11387.087470176501
 33
0.0
210
0.0
220
0.0
230
-1.0
  0
SOLID
  5
2990
  8
0
  6
CONTINUOUS
 10
-13387.474945588179
 20
11389.42982497577
 30
0.0
 11
-15093.31734742206
 21
11389.42982497577
 31
0.0
 12
-15075.77537240206
 22
11387.087470176501
 32
0.0
 13
-15075.77537240206
 23
11387.087470176501
 33
0.0
210
0.0
220
0.0
230
-1.0
  0
SOLID
  5
2991
  8
0
  6
CONTINUOUS
 10
-15199.1745187743
 20
11387.087470176501
 30
0.0
 11
-16887.47494558819
 21
11383.97146774867
 31
0.0
 12
-15216.595713982389
 22
11383.97146774867
 32
0.0
 13
-15216.595713982389
 23
11383.97146774867
 33
0.0
210
0.0
220
0.0
230
-1.0
  0
SOLID
  5
2992
  8
0
  6
CONTINUOUS
 10
-15199.1745187743
 20
11387.087470176501
 30
0.0
 11
-16887.47494558819
 21
11387.087470176501
 31
0.0
 12
-16887.47494558819
 22
11383.97146774867
 32
0.0
 13
-16887.47494558819
 23
11383.97146774867
 33
0.0
210
0.0
220
0.0
230
-1.0
  0
SOLID
  5
2993
  8
0
  6
CONTINUOUS
 10
-13387.474945588179
 20
11387.087470176501
 30
0.0
 11
-15058.35417719398
 21
11383.97146774867
 31
0.0
 12
-13387.474945588179
 22
11383.97146774867
 32
0.0
 13
-13387.474945588179
 23
11383.97146774867
 33
0.0
210
0.0
220
0.0
230
-1.0
  0
SOLID
  5
2994
  8
0
  6
CONTINUOUS
 10
-13387.474945588179
 20
11387.087470176501
 30
0.0
 11
-15075.77537240206
 21
11387.087470176501
 31
0.0
 12
-15058.35417719398
 22
11383.97146774867
 32
0.0
 13
-15058.35417719398
 23
11383.97146774867
 33
0.0
210
0.0
220
0.0
230
-1.0
  0
SOLID
  5
2995
  8
0
  6
CONTINUOUS
 10
-15216.595713982389
 20
11383.97146774867
 30
0.0
 11
-16887.47494558819
 21
11380.087917413381
 31
0.0
 12
-15233.86202657083
 22
11380.087917413381
 32
0.0
 13
-15233.86202657083
 23
11380.087917413381
 33
0.0
210
0.0
220
0.0
230
-1.0
  0
SOLID
  5
2996
  8
0
  6
CONTINUOUS
 10
-15216.595713982389
 20
11383.97146774867
 30
0.0
 11
-16887.47494558819
 21
11383.97146774867
 31
0.0
 12
-16887.47494558819
 22
11380.087917413381
 32
0.0
 13
-16887.47494558819
 23
11380.087917413381
 33
0.0
210
0.0
220
0.0
230
-1.0
  0
SOLID
  5
2997
  8
0
  6
CONTINUOUS
 10
-13387.474945588179
 20
11383.97146774867
 30
0.0
 11
-15041.08786460553
 21
11380.087917413381
 31
0.0
 12
-13387.474945588179
 22
11380.087917413381
 32
0.0
 13
-13387.474945588179
 23
11380.087917413381
 33
0.0
210
0.0
220
0.0
230
-1.0
  0
SOLID
  5
2998
  8
0
  6
CONTINUOUS
 10
-13387.474945588179
 20
11383.97146774867
 30
0.0
 11
-15058.35417719398
 21
11383.97146774867
 31
0.0
 12
-15041.08786460553
 22
11380.087917413381
 32
0.0
 13
-15041.08786460553
 23
11380.087917413381
 33
0.0
210
0.0
220
0.0
230
-1.0
  0
SOLID
  5
2999
  8
0
  6
CONTINUOUS
 10
-15233.86202657083
 20
11380.087917413381
 30
0.0
 11
-16887.47494558819
 21
11375.44442140277
 31
0.0
 12
-15250.939656921901
 22
11375.44442140277
 32
0.0
 13
-15250.939656921901
 23
11375.44442140277
 33
0.0
210
0.0
220
0.0
230
-1.0
  0
SOLID
  5
299A
  8
0
  6
CONTINUOUS
 10
-15233.86202657083
 20
11380.087917413381
 30
0.0
 11
-16887.47494558819
 21
11380.087917413381
 31
0.0
 12
-16887.47494558819
 22
11375.44442140277
 32
0.0
 13
-16887.47494558819
 23
11375.44442140277
 33
0.0
210
0.0
220
0.0
230
-1.0
  0
SOLID
  5
299B
  8
0
  6
CONTINUOUS
 10
-13387.474945588179
 20
11380.087917413381
 30
0.0
 11
-15024.010234254471
 21
11375.44442140277
 31
0.0
 12
-13387.474945588179
 22
11375.44442140277
 32
0.0
 13
-13387.474945588179
 23
11375.44442140277
 33
0.0
210
0.0
220
0.0
230
-1.0
  0
SOLID
  5
299C
  8
0
  6
CONTINUOUS
 10
-13387.474945588179
 20
11380.087917413381
 30
0.0
 11
-15041.08786460553
 21
11380.087917413381
 31
0.0
 12
-15024.010234254471
 22
11375.44442140277
 32
0.0
 13
-15024.010234254471
 23
11375.44442140277
 33
0.0
210
0.0
220
0.0
230
-1.0
  0
SOLID
  5
299D
  8
0
  6
CONTINUOUS
 10
-15250.939656921901
 20
11375.44442140277
 30
0.0
 11
-16887.47494558819
 21
11370.050069578339
 31
0.0
 12
-15267.795174772231
 22
11370.050069578339
 32
0.0
 13
-15267.795174772231
 23
11370.050069578339
 33
0.0
210
0.0
220
0.0
230
-1.0
  0
SOLID
  5
299E
  8
0
  6
CONTINUOUS
 10
-15250.939656921901
 20
11375.44442140277
 30
0.0
 11
-16887.47494558819
 21
11375.44442140277
 31
0.0
 12
-16887.47494558819
 22
11370.050069578339
 32
0.0
 13
-16887.47494558819
 23
11370.050069578339
 33
0.0
210
0.0
220
0.0
230
-1.0
  0
SOLID
  5
299F
  8
0
  6
CONTINUOUS
 10
-13387.474945588179
 20
11375.44442140277
 30
0.0
 11
-15007.15471640414
 21
11370.050069578339
 31
0.0
 12
-13387.474945588179
 22
11370.050069578339
 32
0.0
 13
-13387.474945588179
 23
11370.050069578339
 33
0.0
210
0.0
220
0.0
230
-1.0
  0
SOLID
  5
29A0
  8
0
  6
CONTINUOUS
 10
-13387.474945588179
 20
11375.44442140277
 30
0.0
 11
-15024.010234254471
 21
11375.44442140277
 31
0.0
 12
-15007.15471640414
 22
11370.050069578339
 32
0.0
 13
-15007.15471640414
 23
11370.050069578339
 33
0.0
210
0.0
220
0.0
230
-1.0
  0
SOLID
  5
29A1
  8
0
  6
CONTINUOUS
 10
-15267.795174772231
 20
11370.050069578339
 30
0.0
 11
-16887.47494558819
 21
11363.91542163711
 31
0.0
 12
-15284.39558465409
 22
11363.91542163711
 32
0.0
 13
-15284.39558465409
 23
11363.91542163711
 33
0.0
210
0.0
220
0.0
230
-1.0
  0
SOLID
  5
29A2
  8
0
  6
CONTINUOUS
 10
-15267.795174772231
 20
11370.050069578339
 30
0.0
 11
-16887.47494558819
 21
11370.050069578339
 31
0.0
 12
-16887.47494558819
 22
11363.91542163711
 32
0.0
 13
-16887.47494558819
 23
11363.91542163711
 33
0.0
210
0.0
220
0.0
230
-1.0
  0
SOLID
  5
29A3
  8
0
  6
CONTINUOUS
 10
-13387.474945588179
 20
11370.050069578339
 30
0.0
 11
-14990.554306522279
 21
11363.91542163711
 31
0.0
 12
-13387.474945588179
 22
11363.91542163711
 32
0.0
 13
-13387.474945588179
 23
11363.91542163711
 33
0.0
210
0.0
220
0.0
230
-1.0
  0
SOLID
  5
29A4
  8
0
  6
CONTINUOUS
 10
-13387.474945588179
 20
11370.050069578339
 30
0.0
 11
-15007.15471640414
 21
11370.050069578339
 31
0.0
 12
-14990.554306522279
 22
11363.91542163711
 32
0.0
 13
-14990.554306522279
 23
11363.91542163711
 33
0.0
210
0.0
220
0.0
230
-1.0
  0
SOLID
  5
29A5
  8
0
  6
CONTINUOUS
 10
-15284.39558465409
 20
11363.91542163711
 30
0.0
 11
-16887.47494558819
 21
11357.052486440511
 31
0.0
 12
-15300.70839048557
 22
11357.052486440511
 32
0.0
 13
-15300.70839048557
 23
11357.052486440511
 33
0.0
210
0.0
220
0.0
230
-1.0
  0
SOLID
  5
29A6
  8
0
  6
CONTINUOUS
 10
-15284.39558465409
 20
11363.91542163711
 30
0.0
 11
-16887.47494558819
 21
11363.91542163711
 31
0.0
 12
-16887.47494558819
 22
11357.052486440511
 32
0.0
 13
-16887.47494558819
 23
11357.052486440511
 33
0.0
210
0.0
220
0.0
230
-1.0
  0
SOLID
  5
29A7
  8
0
  6
CONTINUOUS
 10
-13387.474945588179
 20
11363.91542163711
 30
0.0
 11
-14974.2415006908
 21
11357.052486440511
 31
0.0
 12
-13387.474945588179
 22
11357.052486440511
 32
0.0
 13
-13387.474945588179
 23
11357.052486440511
 33
0.0
210
0.0
220
0.0
230
-1.0
  0
SOLID
  5
29A8
  8
0
  6
CONTINUOUS
 10
-13387.474945588179
 20
11363.91542163711
 30
0.0
 11
-14990.554306522279
 21
11363.91542163711
 31
0.0
 12
-14974.2415006908
 22
11357.052486440511
 32
0.0
 13
-14974.2415006908
 23
11357.052486440511
 33
0.0
210
0.0
220
0.0
230
-1.0
  0
SOLID
  5
29A9
  8
0
  6
CONTINUOUS
 10
-15300.70839048557
 20
11357.052486440511
 30
0.0
 11
-16887.47494558819
 21
11349.474698506459
 31
0.0
 12
-15316.70165918322
 22
11349.474698506459
 32
0.0
 13
-15316.70165918322
 23
11349.474698506459
 33
0.0
210
0.0
220
0.0
230
-1.0
  0
SOLID
  5
29AA
  8
0
  6
CONTINUOUS
 10
-15300.70839048557
 20
11357.052486440511
 30
0.0
 11
-16887.47494558819
 21
11357.052486440511
 31
0.0
 12
-16887.47494558819
 22
11349.474698506459
 32
0.0
 13
-16887.47494558819
 23
11349.474698506459
 33
0.0
210
0.0
220
0.0
230
-1.0
  0
SOLID
  5
29AB
  8
0
  6
CONTINUOUS
 10
-13387.474945588179
 20
11357.052486440511
 30
0.0
 11
-14958.24823199315
 21
11349.474698506459
 31
0.0
 12
-13387.474945588179
 22
11349.474698506459
 32
0.0
 13
-13387.474945588179
 23
11349.474698506459
 33
0.0
210
0.0
220
0.0
230
-1.0
  0
SOLID
  5
29AC
  8
0
  6
CONTINUOUS
 10
-13387.474945588179
 20
11357.052486440511
 30
0.0
 11
-14974.2415006908
 21
11357.052486440511
 31
0.0
 12
-14958.24823199315
 22
11349.474698506459
 32
0.0
 13
-14958.24823199315
 23
11349.474698506459
 33
0.0
210
0.0
220
0.0
230
-1.0
  0
SOLID
  5
29AD
  8
0
  6
CONTINUOUS
 10
-15316.70165918322
 20
11349.474698506459
 30
0.0
 11
-16887.47494558819
 21
11341.874663363949
 31
0.0
 12
-15331.063310157429
 22
11341.874663363949
 32
0.0
 13
-15331.063310157429
 23
11341.874663363949
 33
0.0
210
0.0
220
0.0
230
-1.0
  0
SOLID
  5
29AE
  8
0
  6
CONTINUOUS
 10
-15316.70165918322
 20
11349.474698506459
 30
0.0
 11
-16887.47494558819
 21
11349.474698506459
 31
0.0
 12
-16887.47494558819
 22
11341.874663363949
 32
0.0
 13
-16887.47494558819
 23
11341.874663363949
 33
0.0
210
0.0
220
0.0
230
-1.0
  0
SOLID
  5
29AF
  8
0
  6
CONTINUOUS
 10
-13387.474945588179
 20
11349.474698506459
 30
0.0
 11
-14943.886581018931
 21
11341.874663363949
 31
0.0
 12
-13387.474945588179
 22
11341.874663363949
 32
0.0
 13
-13387.474945588179
 23
11341.874663363949
 33
0.0
210
0.0
220
0.0
230
-1.0
  0
SOLID
  5
29B0
  8
0
  6
CONTINUOUS
 10
-13387.474945588179
 20
11349.474698506459
 30
0.0
 11
-14958.24823199315
 21
11349.474698506459
 31
0.0
 12
-14943.886581018931
 22
11341.874663363949
 32
0.0
 13
-14943.886581018931
 23
11341.874663363949
 33
0.0
210
0.0
220
0.0
230
-1.0
  0
SOLID
  5
29B1
  8
0
  6
CONTINUOUS
 10
-15331.063310157429
 20
11341.874663363949
 30
0.0
 11
-15885.127144581351
 21
11341.19689171071
 31
0.0
 12
-15332.3440831725
 22
11341.19689171071
 32
0.0
 13
-15332.3440831725
 23
11341.19689171071
 33
0.0
210
0.0
220
0.0
230
-1.0
  0
SOLID
  5
29B2
  8
0
  6
CONTINUOUS
 10
-15331.063310157429
 20
11341.874663363949
 30
0.0
 11
-15887.474945588179
 21
11341.874663363949
 31
0.0
 12
-15885.127144581351
 22
11341.19689171071
 32
0.0
 13
-15885.127144581351
 23
11341.19689171071
 33
0.0
210
0.0
220
0.0
230
-1.0
  0
SOLID
  5
29B3
  8
0
  6
CONTINUOUS
 10
-14387.47494558819
 20
11341.874663363949
 30
0.0
 11
-14942.605808003869
 21
11341.19689171071
 31
0.0
 12
-14389.82274659502
 22
11341.19689171071
 32
0.0
 13
-14389.82274659502
 23
11341.19689171071
 33
0.0
210
0.0
220
0.0
230
-1.0
  0
SOLID
  5
29B4
  8
0
  6
CONTINUOUS
 10
-14387.47494558819
 20
11341.874663363949
 30
0.0
 11
-14943.886581018931
 21
11341.874663363949
 31
0.0
 12
-14942.605808003869
 22
11341.19689171071
 32
0.0
 13
-14942.605808003869
 23
11341.19689171071
 33
0.0
210
0.0
220
0.0
230
-1.0
  0
SOLID
  5
29B5
  8
0
  6
CONTINUOUS
 10
-15332.3440831725
 20
11341.19689171071
 30
0.0
 11
-15854.084087837209
 21
11332.235270248781
 31
0.0
 12
-15347.6050416739
 22
11332.235270248781
 32
0.0
 13
-15347.6050416739
 23
11332.235270248781
 33
0.0
210
0.0
220
0.0
230
-1.0
  0
SOLID
  5
29B6
  8
0
  6
CONTINUOUS
 10
-15332.3440831725
 20
11341.19689171071
 30
0.0
 11
-15885.127144581351
 21
11341.19689171071
 31
0.0
 12
-15854.084087837209
 22
11332.235270248781
 32
0.0
 13
-15854.084087837209
 23
11332.235270248781
 33
0.0
210
0.0
220
0.0
230
-1.0
  0
SOLID
  5
29B7
  8
0
  6
CONTINUOUS
 10
-14389.82274659502
 20
11341.19689171071
 30
0.0
 11
-14927.34484950247
 21
11332.235270248781
 31
0.0
 12
-14420.865803339149
 22
11332.235270248781
 32
0.0
 13
-14420.865803339149
 23
11332.235270248781
 33
0.0
210
0.0
220
0.0
230
-1.0
  0
SOLID
  5
29B8
  8
0
  6
CONTINUOUS
 10
-14389.82274659502
 20
11341.19689171071
 30
0.0
 11
-14942.605808003869
 21
11341.19689171071
 31
0.0
 12
-14927.34484950247
 22
11332.235270248781
 32
0.0
 13
-14927.34484950247
 23
11332.235270248781
 33
0.0
210
0.0
220
0.0
230
-1.0
  0
SOLID
  5
29B9
  8
0
  6
CONTINUOUS
 10
-15347.6050416739
 20
11332.235270248781
 30
0.0
 11
-15820.7330653308
 21
11322.60737691551
 31
0.0
 12
-15362.4546606445
 22
11322.60737691551
 32
0.0
 13
-15362.4546606445
 23
11322.60737691551
 33
0.0
210
0.0
220
0.0
230
-1.0
  0
SOLID
  5
29BA
  8
0
  6
CONTINUOUS
 10
-15347.6050416739
 20
11332.235270248781
 30
0.0
 11
-15854.084087837209
 21
11332.235270248781
 31
0.0
 12
-15820.7330653308
 22
11322.60737691551
 32
0.0
 13
-15820.7330653308
 23
11322.60737691551
 33
0.0
210
0.0
220
0.0
230
-1.0
  0
SOLID
  5
29BB
  8
0
  6
CONTINUOUS
 10
-14420.865803339149
 20
11332.235270248781
 30
0.0
 11
-14912.495230531869
 21
11322.60737691551
 31
0.0
 12
-14454.216825845569
 22
11322.60737691551
 32
0.0
 13
-14454.216825845569
 23
11322.60737691551
 33
0.0
210
0.0
220
0.0
230
-1.0
  0
SOLID
  5
29BC
  8
0
  6
CONTINUOUS
 10
-14420.865803339149
 20
11332.235270248781
 30
0.0
 11
-14927.34484950247
 21
11332.235270248781
 31
0.0
 12
-14912.495230531869
 22
11322.60737691551
 32
0.0
 13
-14912.495230531869
 23
11322.60737691551
 33
0.0
210
0.0
220
0.0
230
-1.0
  0
SOLID
  5
29BD
  8
0
  6
CONTINUOUS
 10
-15362.4546606445
 20
11322.60737691551
 30
0.0
 11
-15800.87494558819
 21
11316.874663363949
 31
0.0
 12
-15370.493718485261
 22
11316.874663363949
 32
0.0
 13
-15370.493718485261
 23
11316.874663363949
 33
0.0
210
0.0
220
0.0
230
-1.0
  0
SOLID
  5
29BE
  8
0
  6
CONTINUOUS
 10
-15362.4546606445
 20
11322.60737691551
 30
0.0
 11
-15820.7330653308
 21
11322.60737691551
 31
0.0
 12
-15800.87494558819
 22
11316.874663363949
 32
0.0
 13
-15800.87494558819
 23
11316.874663363949
 33
0.0
210
0.0
220
0.0
230
-1.0
  0
SOLID
  5
29BF
  8
0
  6
CONTINUOUS
 10
-14454.216825845569
 20
11322.60737691551
 30
0.0
 11
-14904.456172691111
 21
11316.874663363949
 31
0.0
 12
-14474.07494558818
 22
11316.874663363949
 32
0.0
 13
-14474.07494558818
 23
11316.874663363949
 33
0.0
210
0.0
220
0.0
230
-1.0
  0
SOLID
  5
29C0
  8
0
  6
CONTINUOUS
 10
-14454.216825845569
 20
11322.60737691551
 30
0.0
 11
-14912.495230531869
 21
11322.60737691551
 31
0.0
 12
-14904.456172691111
 22
11316.874663363949
 32
0.0
 13
-14904.456172691111
 23
11316.874663363949
 33
0.0
210
0.0
220
0.0
230
-1.0
  0
SOLID
  5
29C1
  8
0
  6
CONTINUOUS
 10
-15370.493718485261
 20
11316.874663363949
 30
0.0
 11
-15800.87494558819
 21
11312.33205876425
 31
0.0
 12
-15376.86387125781
 22
11312.33205876425
 32
0.0
 13
-15376.86387125781
 23
11312.33205876425
 33
0.0
210
0.0
220
0.0
230
-1.0
  0
SOLID
  5
29C2
  8
0
  6
CONTINUOUS
 10
-15370.493718485261
 20
11316.874663363949
 30
0.0
 11
-15800.87494558819
 21
11316.874663363949
 31
0.0
 12
-15800.87494558819
 22
11312.33205876425
 32
0.0
 13
-15800.87494558819
 23
11312.33205876425
 33
0.0
210
0.0
220
0.0
230
-1.0
  0
SOLID
  5
29C3
  8
0
  6
CONTINUOUS
 10
-14474.07494558818
 20
11316.874663363949
 30
0.0
 11
-14898.086019918561
 21
11312.33205876425
 31
0.0
 12
-14474.07494558818
 22
11312.33205876425
 32
0.0
 13
-14474.07494558818
 23
11312.33205876425
 33
0.0
210
0.0
220
0.0
230
-1.0
  0
SOLID
  5
29C4
  8
0
  6
CONTINUOUS
 10
-14474.07494558818
 20
11316.874663363949
 30
0.0
 11
-14904.456172691111
 21
11316.874663363949
 31
0.0
 12
-14898.086019918561
 22
11312.33205876425
 32
0.0
 13
-14898.086019918561
 23
11312.33205876425
 33
0.0
210
0.0
220
0.0
230
-1.0
  0
SOLID
  5
29C5
  8
0
  6
CONTINUOUS
 10
-15376.86387125781
 20
11312.33205876425
 30
0.0
 11
-15800.87494558819
 21
11301.429430212789
 31
0.0
 12
-15390.8044668074
 22
11301.429430212789
 32
0.0
 13
-15390.8044668074
 23
11301.429430212789
 33
0.0
210
0.0
220
0.0
230
-1.0
  0
SOLID
  5
29C6
  8
0
  6
CONTINUOUS
 10
-15376.86387125781
 20
11312.33205876425
 30
0.0
 11
-15800.87494558819
 21
11312.33205876425
 31
0.0
 12
-15800.87494558819
 22
11301.429430212789
 32
0.0
 13
-15800.87494558819
 23
11301.429430212789
 33
0.0
210
0.0
220
0.0
230
-1.0
  0
SOLID
  5
29C7
  8
0
  6
CONTINUOUS
 10
-14474.07494558818
 20
11312.33205876425
 30
0.0
 11
-14884.14542436896
 21
11301.429430212789
 31
0.0
 12
-14474.07494558818
 22
11301.429430212789
 32
0.0
 13
-14474.07494558818
 23
11301.429430212789
 33
0.0
210
0.0
220
0.0
230
-1.0
  0
SOLID
  5
29C8
  8
0
  6
CONTINUOUS
 10
-14474.07494558818
 20
11312.33205876425
 30
0.0
 11
-14898.086019918561
 21
11312.33205876425
 31
0.0
 12
-14884.14542436896
 22
11301.429430212789
 32
0.0
 13
-14884.14542436896
 23
11301.429430212789
 33
0.0
210
0.0
220
0.0
230
-1.0
  0
SOLID
  5
29C9
  8
0
  6
CONTINUOUS
 10
-15390.8044668074
 20
11301.429430212789
 30
0.0
 11
-15800.87494558819
 21
11289.920833668521
 31
0.0
 12
-15404.249157922841
 22
11289.920833668521
 32
0.0
 13
-15404.249157922841
 23
11289.920833668521
 33
0.0
210
0.0
220
0.0
230
-1.0
  0
SOLID
  5
29CA
  8
0
  6
CONTINUOUS
 10
-15390.8044668074
 20
11301.429430212789
 30
0.0
 11
-15800.87494558819
 21
11301.429430212789
 31
0.0
 12
-15800.87494558819
 22
11289.920833668521
 32
0.0
 13
-15800.87494558819
 23
11289.920833668521
 33
0.0
210
0.0
220
0.0
230
-1.0
  0
SOLID
  5
29CB
  8
0
  6
CONTINUOUS
 10
-14474.07494558818
 20
11301.429430212789
 30
0.0
 11
-14870.70073325353
 21
11289.920833668521
 31
0.0
 12
-14474.07494558818
 22
11289.920833668521
 32
0.0
 13
-14474.07494558818
 23
11289.920833668521
 33
0.0
210
0.0
220
0.0
230
-1.0
  0
SOLID
  5
29CC
  8
0
  6
CONTINUOUS
 10
-14474.07494558818
 20
11301.429430212789
 30
0.0
 11
-14884.14542436896
 21
11301.429430212789
 31
0.0
 12
-14870.70073325353
 22
11289.920833668521
 32
0.0
 13
-14870.70073325353
 23
11289.920833668521
 33
0.0
210
0.0
220
0.0
230
-1.0
  0
SOLID
  5
29CD
  8
0
  6
CONTINUOUS
 10
-15404.249157922841
 20
11289.920833668521
 30
0.0
 11
-15800.87494558819
 21
11277.82879774962
 31
0.0
 12
-15417.171625989909
 22
11277.82879774962
 32
0.0
 13
-15417.171625989909
 23
11277.82879774962
 33
0.0
210
0.0
220
0.0
230
-1.0
  0
SOLID
  5
29CE
  8
0
  6
CONTINUOUS
 10
-15404.249157922841
 20
11289.920833668521
 30
0.0
 11
-15800.87494558819
 21
11289.920833668521
 31
0.0
 12
-15800.87494558819
 22
11277.82879774962
 32
0.0
 13
-15800.87494558819
 23
11277.82879774962
 33
0.0
210
0.0
220
0.0
230
-1.0
  0
SOLID
  5
29CF
  8
0
  6
CONTINUOUS
 10
-14474.07494558818
 20
11289.920833668521
 30
0.0
 11
-14857.77826518646
 21
11277.82879774962
 31
0.0
 12
-14474.07494558818
 22
11277.82879774962
 32
0.0
 13
-14474.07494558818
 23
11277.82879774962
 33
0.0
210
0.0
220
0.0
230
-1.0
  0
SOLID
  5
29D0
  8
0
  6
CONTINUOUS
 10
-14474.07494558818
 20
11289.920833668521
 30
0.0
 11
-14870.70073325353
 21
11289.920833668521
 31
0.0
 12
-14857.77826518646
 22
11277.82879774962
 32
0.0
 13
-14857.77826518646
 23
11277.82879774962
 33
0.0
210
0.0
220
0.0
230
-1.0
  0
SOLID
  5
29D1
  8
0
  6
CONTINUOUS
 10
-15417.171625989909
 20
11277.82879774962
 30
0.0
 11
-15800.87494558819
 21
11266.874663363949
 31
0.0
 12
-15427.88605413038
 22
11266.874663363949
 32
0.0
 13
-15427.88605413038
 23
11266.874663363949
 33
0.0
210
0.0
220
0.0
230
-1.0
  0
SOLID
  5
29D2
  8
0
  6
CONTINUOUS
 10
-15417.171625989909
 20
11277.82879774962
 30
0.0
 11
-15800.87494558819
 21
11277.82879774962
 31
0.0
 12
-15800.87494558819
 22
11266.874663363949
 32
0.0
 13
-15800.87494558819
 23
11266.874663363949
 33
0.0
210
0.0
220
0.0
230
-1.0
  0
SOLID
  5
29D3
  8
0
  6
CONTINUOUS
 10
-14474.07494558818
 20
11277.82879774962
 30
0.0
 11
-14847.063837045989
 21
11266.874663363949
 31
0.0
 12
-14474.07494558818
 22
11266.874663363949
 32
0.0
 13
-14474.07494558818
 23
11266.874663363949
 33
0.0
210
0.0
220
0.0
230
-1.0
  0
SOLID
  5
29D4
  8
0
  6
CONTINUOUS
 10
-14474.07494558818
 20
11277.82879774962
 30
0.0
 11
-14857.77826518646
 21
11277.82879774962
 31
0.0
 12
-14847.063837045989
 22
11266.874663363949
 32
0.0
 13
-14847.063837045989
 23
11266.874663363949
 33
0.0
210
0.0
220
0.0
230
-1.0
  0
SOLID
  5
29D5
  8
0
  6
CONTINUOUS
 10
-15427.88605413038
 20
11266.874663363949
 30
0.0
 11
-15806.75567509075
 21
11265.17699318423
 31
0.0
 12
-15429.546574670519
 22
11265.17699318423
 32
0.0
 13
-15429.546574670519
 23
11265.17699318423
 33
0.0
210
0.0
220
0.0
230
-1.0
  0
SOLID
  5
29D6
  8
0
  6
CONTINUOUS
 10
-15427.88605413038
 20
11266.874663363949
 30
0.0
 11
-15800.87494558819
 21
11266.874663363949
 31
0.0
 12
-15806.75567509075
 22
11265.17699318423
 32
0.0
 13
-15806.75567509075
 23
11265.17699318423
 33
0.0
210
0.0
220
0.0
230
-1.0
  0
SOLID
  5
29D7
  8
0
  6
CONTINUOUS
 10
-14474.07494558818
 20
11266.874663363949
 30
0.0
 11
-14845.40331650585
 21
11265.17699318423
 31
0.0
 12
-14468.19421608562
 22
11265.17699318423
 32
0.0
 13
-14468.19421608562
 23
11265.17699318423
 33
0.0
210
0.0
220
0.0
230
-1.0
  0
SOLID
  5
29D8
  8
0
  6
CONTINUOUS
 10
-14474.07494558818
 20
11266.874663363949
 30
0.0
 11
-14847.063837045989
 21
11266.874663363949
 31
0.0
 12
-14845.40331650585
 22
11265.17699318423
 32
0.0
 13
-14845.40331650585
 23
11265.17699318423
 33
0.0
210
0.0
220
0.0
230
-1.0
  0
SOLID
  5
29D9
  8
0
  6
CONTINUOUS
 10
-15887.474945588179
 20
11341.874663363949
 30
0.0
 11
-16887.47494558819
 21
11251.990186473929
 31
0.0
 12
-15887.474945588179
 22
11251.990186473929
 32
0.0
 13
-15887.474945588179
 23
11251.990186473929
 33
0.0
210
0.0
220
0.0
230
-1.0
  0
SOLID
  5
29DA
  8
0
  6
CONTINUOUS
 10
-15887.474945588179
 20
11341.874663363949
 30
0.0
 11
-16887.47494558819
 21
11341.874663363949
 31
0.0
 12
-16887.47494558819
 22
11251.990186473929
 32
0.0
 13
-16887.47494558819
 23
11251.990186473929
 33
0.0
210
0.0
220
0.0
230
-1.0
  0
SOLID
  5
29DB
  8
0
  6
CONTINUOUS
 10
-15429.546574670519
 20
11265.17699318423
 30
0.0
 11
-15852.434773535229
 21
11251.990186473929
 31
0.0
 12
-15441.3497794215
 22
11251.990186473929
 32
0.0
 13
-15441.3497794215
 23
11251.990186473929
 33
0.0
210
0.0
220
0.0
230
-1.0
  0
SOLID
  5
29DC
  8
0
  6
CONTINUOUS
 10
-15429.546574670519
 20
11265.17699318423
 30
0.0
 11
-15806.75567509075
 21
11265.17699318423
 31
0.0
 12
-15852.434773535229
 22
11251.990186473929
 32
0.0
 13
-15852.434773535229
 23
11251.990186473929
 33
0.0
210
0.0
220
0.0
230
-1.0
  0
SOLID
  5
29DD
  8
0
  6
CONTINUOUS
 10
-14468.19421608562
 20
11265.17699318423
 30
0.0
 11
-14833.600111754869
 21
11251.990186473929
 31
0.0
 12
-14422.51511764114
 22
11251.990186473929
 32
0.0
 13
-14422.51511764114
 23
11251.990186473929
 33
0.0
210
0.0
220
0.0
230
-1.0
  0
SOLID
  5
29DE
  8
0
  6
CONTINUOUS
 10
-14468.19421608562
 20
11265.17699318423
 30
0.0
 11
-14845.40331650585
 21
11265.17699318423
 31
0.0
 12
-14833.600111754869
 22
11251.990186473929
 32
0.0
 13
-14833.600111754869
 23
11251.990186473929
 33
0.0
210
0.0
220
0.0
230
-1.0
  0
SOLID
  5
29DF
  8
0
  6
CONTINUOUS
 10
-15887.474945588179
 20
11251.990186473929
 30
0.0
 11
-16887.47494558819
 21
11241.874663363949
 31
0.0
 12
-15887.474945588179
 22
11241.874663363949
 32
0.0
 13
-15887.474945588179
 23
11241.874663363949
 33
0.0
210
0.0
220
0.0
230
-1.0
  0
SOLID
  5
29E0
  8
0
  6
CONTINUOUS
 10
-15887.474945588179
 20
11251.990186473929
 30
0.0
 11
-16887.47494558819
 21
11251.990186473929
 31
0.0
 12
-16887.47494558819
 22
11241.874663363949
 32
0.0
 13
-16887.47494558819
 23
11241.874663363949
 33
0.0
210
0.0
220
0.0
230
-1.0
  0
SOLID
  5
29E1
  8
0
  6
CONTINUOUS
 10
-15441.3497794215
 20
11251.990186473929
 30
0.0
 11
-15887.474945588179
 21
11241.874663363949
 31
0.0
 12
-15449.6279934914
 22
11241.874663363949
 32
0.0
 13
-15449.6279934914
 23
11241.874663363949
 33
0.0
210
0.0
220
0.0
230
-1.0
  0
SOLID
  5
29E2
  8
0
  6
CONTINUOUS
 10
-15441.3497794215
 20
11251.990186473929
 30
0.0
 11
-15852.434773535229
 21
11251.990186473929
 31
0.0
 12
-15887.474945588179
 22
11241.874663363949
 32
0.0
 13
-15887.474945588179
 23
11241.874663363949
 33
0.0
210
0.0
220
0.0
230
-1.0
  0
SOLID
  5
29E3
  8
0
  6
CONTINUOUS
 10
-14422.51511764114
 20
11251.990186473929
 30
0.0
 11
-14825.321897684969
 21
11241.874663363949
 31
0.0
 12
-14387.47494558819
 22
11241.874663363949
 32
0.0
 13
-14387.47494558819
 23
11241.874663363949
 33
0.0
210
0.0
220
0.0
230
-1.0
  0
SOLID
  5
29E4
  8
0
  6
CONTINUOUS
 10
-14422.51511764114
 20
11251.990186473929
 30
0.0
 11
-14833.600111754869
 21
11251.990186473929
 31
0.0
 12
-14825.321897684969
 22
11241.874663363949
 32
0.0
 13
-14825.321897684969
 23
11241.874663363949
 33
0.0
210
0.0
220
0.0
230
-1.0
  0
SOLID
  5
29E5
  8
0
  6
CONTINUOUS
 10
-13387.474945588179
 20
11341.874663363949
 30
0.0
 11
-14387.47494558819
 21
11241.874663363949
 31
0.0
 12
-13387.474945588179
 22
11241.874663363949
 32
0.0
 13
-13387.474945588179
 23
11241.874663363949
 33
0.0
210
0.0
220
0.0
230
-1.0
  0
SOLID
  5
29E6
  8
0
  6
CONTINUOUS
 10
-13387.474945588179
 20
11341.874663363949
 30
0.0
 11
-14387.47494558819
 21
11341.874663363949
 31
0.0
 12
-14387.47494558819
 22
11241.874663363949
 32
0.0
 13
-14387.47494558819
 23
11241.874663363949
 33
0.0
210
0.0
220
0.0
230
-1.0
  0
SOLID
  5
29E7
  8
0
  6
CONTINUOUS
 10
-15449.6279934914
 20
11241.874663363949
 30
0.0
 11
-16887.47494558819
 21
11238.2941914121
 31
0.0
 12
-15452.558134915271
 22
11238.2941914121
 32
0.0
 13
-15452.558134915271
 23
11238.2941914121
 33
0.0
210
0.0
220
0.0
230
-1.0
  0
SOLID
  5
29E8
  8
0
  6
CONTINUOUS
 10
-15449.6279934914
 20
11241.874663363949
 30
0.0
 11
-16887.47494558819
 21
11241.874663363949
 31
0.0
 12
-16887.47494558819
 22
11238.2941914121
 32
0.0
 13
-16887.47494558819
 23
11238.2941914121
 33
0.0
210
0.0
220
0.0
230
-1.0
  0
SOLID
  5
29E9
  8
0
  6
CONTINUOUS
 10
-13387.474945588179
 20
11241.874663363949
 30
0.0
 11
-14822.3917562611
 21
11238.2941914121
 31
0.0
 12
-13387.474945588179
 22
11238.2941914121
 32
0.0
 13
-13387.474945588179
 23
11238.2941914121
 33
0.0
210
0.0
220
0.0
230
-1.0
  0
SOLID
  5
29EA
  8
0
  6
CONTINUOUS
 10
-13387.474945588179
 20
11241.874663363949
 30
0.0
 11
-14825.321897684969
 21
11241.874663363949
 31
0.0
 12
-14822.3917562611
 22
11238.2941914121
 32
0.0
 13
-14822.3917562611
 23
11238.2941914121
 33
0.0
210
0.0
220
0.0
230
-1.0
  0
SOLID
  5
29EB
  8
0
  6
CONTINUOUS
 10
-15452.558134915271
 20
11238.2941914121
 30
0.0
 11
-16887.47494558819
 21
11224.11581855224
 31
0.0
 12
-15463.149700269611
 22
11224.11581855224
 32
0.0
 13
-15463.149700269611
 23
11224.11581855224
 33
0.0
210
0.0
220
0.0
230
-1.0
  0
SOLID
  5
29EC
  8
0
  6
CONTINUOUS
 10
-15452.558134915271
 20
11238.2941914121
 30
0.0
 11
-16887.47494558819
 21
11238.2941914121
 31
0.0
 12
-16887.47494558819
 22
11224.11581855224
 32
0.0
 13
-16887.47494558819
 23
11224.11581855224
 33
0.0
210
0.0
220
0.0
230
-1.0
  0
SOLID
  5
29ED
  8
0
  6
CONTINUOUS
 10
-13387.474945588179
 20
11238.2941914121
 30
0.0
 11
-14811.800190906761
 21
11224.11581855224
 31
0.0
 12
-13387.474945588179
 22
11224.11581855224
 32
0.0
 13
-13387.474945588179
 23
11224.11581855224
 33
0.0
210
0.0
220
0.0
230
-1.0
  0
SOLID
  5
29EE
  8
0
  6
CONTINUOUS
 10
-13387.474945588179
 20
11238.2941914121
 30
0.0
 11
-14822.3917562611
 21
11238.2941914121
 31
0.0
 12
-14811.800190906761
 22
11224.11581855224
 32
0.0
 13
-14811.800190906761
 23
11224.11581855224
 33
0.0
210
0.0
220
0.0
230
-1.0
  0
SOLID
  5
29EF
  8
0
  6
CONTINUOUS
 10
-15463.149700269611
 20
11224.11581855224
 30
0.0
 11
-16887.47494558819
 21
11209.48282272504
 31
0.0
 12
-15473.10374199796
 22
11209.48282272504
 32
0.0
 13
-15473.10374199796
 23
11209.48282272504
 33
0.0
210
0.0
220
0.0
230
-1.0
  0
SOLID
  5
29F0
  8
0
  6
CONTINUOUS
 10
-15463.149700269611
 20
11224.11581855224
 30
0.0
 11
-16887.47494558819
 21
11224.11581855224
 31
0.0
 12
-16887.47494558819
 22
11209.48282272504
 32
0.0
 13
-16887.47494558819
 23
11209.48282272504
 33
0.0
210
0.0
220
0.0
230
-1.0
  0
SOLID
  5
29F1
  8
0
  6
CONTINUOUS
 10
-13387.474945588179
 20
11224.11581855224
 30
0.0
 11
-14801.846149178409
 21
11209.48282272504
 31
0.0
 12
-13387.474945588179
 22
11209.48282272504
 32
0.0
 13
-13387.474945588179
 23
11209.48282272504
 33
0.0
210
0.0
220
0.0
230
-1.0
  0
SOLID
  5
29F2
  8
0
  6
CONTINUOUS
 10
-13387.474945588179
 20
11224.11581855224
 30
0.0
 11
-14811.800190906761
 21
11224.11581855224
 31
0.0
 12
-14801.846149178409
 22
11209.48282272504
 32
0.0
 13
-14801.846149178409
 23
11209.48282272504
 33
0.0
210
0.0
220
0.0
230
-1.0
  0
SOLID
  5
29F3
  8
0
  6
CONTINUOUS
 10
-15473.10374199796
 20
11209.48282272504
 30
0.0
 11
-16887.47494558819
 21
11194.423848707011
 31
0.0
 12
-15482.400774596201
 22
11194.423848707011
 32
0.0
 13
-15482.400774596201
 23
11194.423848707011
 33
0.0
210
0.0
220
0.0
230
-1.0
  0
SOLID
  5
29F4
  8
0
  6
CONTINUOUS
 10
-15473.10374199796
 20
11209.48282272504
 30
0.0
 11
-16887.47494558819
 21
11209.48282272504
 31
0.0
 12
-16887.47494558819
 22
11194.423848707011
 32
0.0
 13
-16887.47494558819
 23
11194.423848707011
 33
0.0
210
0.0
220
0.0
230
-1.0
  0
SOLID
  5
29F5
  8
0
  6
CONTINUOUS
 10
-13387.474945588179
 20
11209.48282272504
 30
0.0
 11
-14792.54911658017
 21
11194.423848707011
 31
0.0
 12
-13387.474945588179
 22
11194.423848707011
 32
0.0
 13
-13387.474945588179
 23
11194.423848707011
 33
0.0
210
0.0
220
0.0
230
-1.0
  0
SOLID
  5
29F6
  8
0
  6
CONTINUOUS
 10
-13387.474945588179
 20
11209.48282272504
 30
0.0
 11
-14801.846149178409
 21
11209.48282272504
 31
0.0
 12
-14792.54911658017
 22
11194.423848707011
 32
0.0
 13
-14792.54911658017
 23
11194.423848707011
 33
0.0
210
0.0
220
0.0
230
-1.0
  0
SOLID
  5
29F7
  8
0
  6
CONTINUOUS
 10
-15482.400774596201
 20
11194.423848707011
 30
0.0
 11
-16887.47494558819
 21
11178.96837514694
 31
0.0
 12
-15491.02259868641
 22
11178.96837514694
 32
0.0
 13
-15491.02259868641
 23
11178.96837514694
 33
0.0
210
0.0
220
0.0
230
-1.0
  0
SOLID
  5
29F8
  8
0
  6
CONTINUOUS
 10
-15482.400774596201
 20
11194.423848707011
 30
0.0
 11
-16887.47494558819
 21
11194.423848707011
 31
0.0
 12
-16887.47494558819
 22
11178.96837514694
 32
0.0
 13
-16887.47494558819
 23
11178.96837514694
 33
0.0
210
0.0
220
0.0
230
-1.0
  0
SOLID
  5
29F9
  8
0
  6
CONTINUOUS
 10
-13387.474945588179
 20
11194.423848707011
 30
0.0
 11
-14783.92729248996
 21
11178.96837514694
 31
0.0
 12
-13387.474945588179
 22
11178.96837514694
 32
0.0
 13
-13387.474945588179
 23
11178.96837514694
 33
0.0
210
0.0
220
0.0
230
-1.0
  0
SOLID
  5
29FA
  8
0
  6
CONTINUOUS
 10
-13387.474945588179
 20
11194.423848707011
 30
0.0
 11
-14792.54911658017
 21
11194.423848707011
 31
0.0
 12
-14783.92729248996
 22
11178.96837514694
 32
0.0
 13
-14783.92729248996
 23
11178.96837514694
 33
0.0
210
0.0
220
0.0
230
-1.0
  0
SOLID
  5
29FB
  8
0
  6
CONTINUOUS
 10
-15491.02259868641
 20
11178.96837514694
 30
0.0
 11
-16887.47494558819
 21
11163.14665686013
 31
0.0
 12
-15498.95233664306
 22
11163.14665686013
 32
0.0
 13
-15498.95233664306
 23
11163.14665686013
 33
0.0
210
0.0
220
0.0
230
-1.0
  0
SOLID
  5
29FC
  8
0
  6
CONTINUOUS
 10
-15491.02259868641
 20
11178.96837514694
 30
0.0
 11
-16887.47494558819
 21
11178.96837514694
 31
0.0
 12
-16887.47494558819
 22
11163.14665686013
 32
0.0
 13
-16887.47494558819
 23
11163.14665686013
 33
0.0
210
0.0
220
0.0
230
-1.0
  0
SOLID
  5
29FD
  8
0
  6
CONTINUOUS
 10
-13387.474945588179
 20
11178.96837514694
 30
0.0
 11
-14775.9975545333
 21
11163.14665686013
 31
0.0
 12
-13387.474945588179
 22
11163.14665686013
 32
0.0
 13
-13387.474945588179
 23
11163.14665686013
 33
0.0
210
0.0
220
0.0
230
-1.0
  0
SOLID
  5
29FE
  8
0
  6
CONTINUOUS
 10
-13387.474945588179
 20
11178.96837514694
 30
0.0
 11
-14783.92729248996
 21
11178.96837514694
 31
0.0
 12
-14775.9975545333
 22
11163.14665686013
 32
0.0
 13
-14775.9975545333
 23
11163.14665686013
 33
0.0
210
0.0
220
0.0
230
-1.0
  0
SOLID
  5
29FF
  8
0
  6
CONTINUOUS
 10
-15498.95233664306
 20
11163.14665686013
 30
0.0
 11
-16887.47494558819
 21
11146.989665603111
 31
0.0
 12
-15506.17446563173
 22
11146.989665603111
 32
0.0
 13
-15506.17446563173
 23
11146.989665603111
 33
0.0
210
0.0
220
0.0
230
-1.0
  0
SOLID
  5
2A00
  8
0
  6
CONTINUOUS
 10
-15498.95233664306
 20
11163.14665686013
 30
0.0
 11
-16887.47494558819
 21
11163.14665686013
 31
0.0
 12
-16887.47494558819
 22
11146.989665603111
 32
0.0
 13
-16887.47494558819
 23
11146.989665603111
 33
0.0
210
0.0
220
0.0
230
-1.0
  0
SOLID
  5
2A01
  8
0
  6
CONTINUOUS
 10
-13387.474945588179
 20
11163.14665686013
 30
0.0
 11
-14768.775425544631
 21
11146.989665603111
 31
0.0
 12
-13387.474945588179
 22
11146.989665603111
 32
0.0
 13
-13387.474945588179
 23
11146.989665603111
 33
0.0
210
0.0
220
0.0
230
-1.0
  0
SOLID
  5
2A02
  8
0
  6
CONTINUOUS
 10
-13387.474945588179
 20
11163.14665686013
 30
0.0
 11
-14775.9975545333
 21
11163.14665686013
 31
0.0
 12
-14768.775425544631
 22
11146.989665603111
 32
0.0
 13
-14768.775425544631
 23
11146.989665603111
 33
0.0
210
0.0
220
0.0
230
-1.0
  0
SOLID
  5
2A03
  8
0
  6
CONTINUOUS
 10
-15506.17446563173
 20
11146.989665603111
 30
0.0
 11
-16887.47494558819
 21
11141.874663363949
 31
0.0
 12
-15508.194403988189
 22
11141.874663363949
 32
0.0
 13
-15508.194403988189
 23
11141.874663363949
 33
0.0
210
0.0
220
0.0
230
-1.0
  0
SOLID
  5
2A04
  8
0
  6
CONTINUOUS
 10
-15506.17446563173
 20
11146.989665603111
 30
0.0
 11
-16887.47494558819
 21
11146.989665603111
 31
0.0
 12
-16887.47494558819
 22
11141.874663363949
 32
0.0
 13
-16887.47494558819
 23
11141.874663363949
 33
0.0
210
0.0
220
0.0
230
-1.0
  0
SOLID
  5
2A05
  8
0
  6
CONTINUOUS
 10
-13387.474945588179
 20
11146.989665603111
 30
0.0
 11
-14766.75548718818
 21
11141.874663363949
 31
0.0
 12
-13387.474945588179
 22
11141.874663363949
 32
0.0
 13
-13387.474945588179
 23
11141.874663363949
 33
0.0
210
0.0
220
0.0
230
-1.0
  0
SOLID
  5
2A06
  8
0
  6
CONTINUOUS
 10
-13387.474945588179
 20
11146.989665603111
 30
0.0
 11
-14768.775425544631
 21
11146.989665603111
 31
0.0
 12
-14766.75548718818
 22
11141.874663363949
 32
0.0
 13
-14766.75548718818
 23
11141.874663363949
 33
0.0
210
0.0
220
0.0
230
-1.0
  0
SOLID
  5
2A07
  8
0
  6
CONTINUOUS
 10
-15508.194403988189
 20
11141.874663363949
 30
0.0
 11
-15848.17366969294
 21
11130.529029445001
 31
0.0
 12
-15512.67484799577
 22
11130.529029445001
 32
0.0
 13
-15512.67484799577
 23
11130.529029445001
 33
0.0
210
0.0
220
0.0
230
-1.0
  0
SOLID
  5
2A08
  8
0
  6
CONTINUOUS
 10
-15508.194403988189
 20
11141.874663363949
 30
0.0
 11
-15887.474945588179
 21
11141.874663363949
 31
0.0
 12
-15848.17366969294
 22
11130.529029445001
 32
0.0
 13
-15848.17366969294
 23
11130.529029445001
 33
0.0
210
0.0
220
0.0
230
-1.0
  0
SOLID
  5
2A09
  8
0
  6
CONTINUOUS
 10
-14387.47494558819
 20
11141.874663363949
 30
0.0
 11
-14762.2750431806
 21
11130.529029445001
 31
0.0
 12
-14426.776221483429
 22
11130.529029445001
 32
0.0
 13
-14426.776221483429
 23
11130.529029445001
 33
0.0
210
0.0
220
0.0
230
-1.0
  0
SOLID
  5
2A0A
  8
0
  6
CONTINUOUS
 10
-14387.47494558819
 20
11141.874663363949
 30
0.0
 11
-14766.75548718818
 21
11141.874663363949
 31
0.0
 12
-14762.2750431806
 22
11130.529029445001
 32
0.0
 13
-14762.2750431806
 23
11130.529029445001
 33
0.0
210
0.0
220
0.0
230
-1.0
  0
SOLID
  5
2A0B
  8
0
  6
CONTINUOUS
 10
-15512.67484799577
 20
11130.529029445001
 30
0.0
 11
-15800.87494558819
 21
11116.874663363949
 31
0.0
 12
-15517.380178082831
 22
11116.874663363949
 32
0.0
 13
-15517.380178082831
 23
11116.874663363949
 33
0.0
210
0.0
220
0.0
230
-1.0
  0
SOLID
  5
2A0C
  8
0
  6
CONTINUOUS
 10
-15512.67484799577
 20
11130.529029445001
 30
0.0
 11
-15848.17366969294
 21
11130.529029445001
 31
0.0
 12
-15800.87494558819
 22
11116.874663363949
 32
0.0
 13
-15800.87494558819
 23
11116.874663363949
 33
0.0
210
0.0
220
0.0
230
-1.0
  0
SOLID
  5
2A0D
  8
0
  6
CONTINUOUS
 10
-14426.776221483429
 20
11130.529029445001
 30
0.0
 11
-14757.56971309354
 21
11116.874663363949
 31
0.0
 12
-14474.07494558818
 22
11116.874663363949
 32
0.0
 13
-14474.07494558818
 23
11116.874663363949
 33
0.0
210
0.0
220
0.0
230
-1.0
  0
SOLID
  5
2A0E
  8
0
  6
CONTINUOUS
 10
-14426.776221483429
 20
11130.529029445001
 30
0.0
 11
-14762.2750431806
 21
11130.529029445001
 31
0.0
 12
-14757.56971309354
 22
11116.874663363949
 32
0.0
 13
-14757.56971309354
 23
11116.874663363949
 33
0.0
210
0.0
220
0.0
230
-1.0
  0
SOLID
  5
2A0F
  8
0
  6
CONTINUOUS
 10
-15517.380178082831
 20
11116.874663363949
 30
0.0
 11
-15800.87494558819
 21
11113.79697085407
 31
0.0
 12
-15518.44075893144
 22
11113.79697085407
 32
0.0
 13
-15518.44075893144
 23
11113.79697085407
 33
0.0
210
0.0
220
0.0
230
-1.0
  0
SOLID
  5
2A10
  8
0
  6
CONTINUOUS
 10
-15517.380178082831
 20
11116.874663363949
 30
0.0
 11
-15800.87494558819
 21
11116.874663363949
 31
0.0
 12
-15800.87494558819
 22
11113.79697085407
 32
0.0
 13
-15800.87494558819
 23
11113.79697085407
 33
0.0
210
0.0
220
0.0
230
-1.0
  0
SOLID
  5
2A11
  8
0
  6
CONTINUOUS
 10
-14474.07494558818
 20
11116.874663363949
 30
0.0
 11
-14756.50913224493
 21
11113.79697085407
 31
0.0
 12
-14474.07494558818
 22
11113.79697085407
 32
0.0
 13
-14474.07494558818
 23
11113.79697085407
 33
0.0
210
0.0
220
0.0
230
-1.0
  0
SOLID
  5
2A12
  8
0
  6
CONTINUOUS
 10
-14474.07494558818
 20
11116.874663363949
 30
0.0
 11
-14757.56971309354
 21
11116.874663363949
 31
0.0
 12
-14756.50913224493
 22
11113.79697085407
 32
0.0
 13
-14756.50913224493
 23
11113.79697085407
 33
0.0
210
0.0
220
0.0
230
-1.0
  0
SOLID
  5
2A13
  8
0
  6
CONTINUOUS
 10
-15518.44075893144
 20
11113.79697085407
 30
0.0
 11
-15800.87494558819
 21
11096.826243620741
 31
0.0
 12
-15523.460911397309
 22
11096.826243620741
 32
0.0
 13
-15523.460911397309
 23
11096.826243620741
 33
0.0
210
0.0
220
0.0
230
-1.0
  0
SOLID
  5
2A14
  8
0
  6
CONTINUOUS
 10
-15518.44075893144
 20
11113.79697085407
 30
0.0
 11
-15800.87494558819
 21
11113.79697085407
 31
0.0
 12
-15800.87494558819
 22
11096.826243620741
 32
0.0
 13
-15800.87494558819
 23
11096.826243620741
 33
0.0
210
0.0
220
0.0
230
-1.0
  0
SOLID
  5
2A15
  8
0
  6
CONTINUOUS
 10
-14474.07494558818
 20
11113.79697085407
 30
0.0
 11
-14751.48897977906
 21
11096.826243620741
 31
0.0
 12
-14474.07494558818
 22
11096.826243620741
 32
0.0
 13
-14474.07494558818
 23
11096.826243620741
 33
0.0
210
0.0
220
0.0
230
-1.0
  0
SOLID
  5
2A16
  8
0
  6
CONTINUOUS
 10
-14474.07494558818
 20
11113.79697085407
 30
0.0
 11
-14756.50913224493
 21
11113.79697085407
 31
0.0
 12
-14751.48897977906
 22
11096.826243620741
 32
0.0
 13
-14751.48897977906
 23
11096.826243620741
 33
0.0
210
0.0
220
0.0
230
-1.0
  0
SOLID
  5
2A17
  8
0
  6
CONTINUOUS
 10
-15523.460911397309
 20
11096.826243620741
 30
0.0
 11
-15800.87494558819
 21
11079.65006874053
 31
0.0
 12
-15527.72547820919
 22
11079.65006874053
 32
0.0
 13
-15527.72547820919
 23
11079.65006874053
 33
0.0
210
0.0
220
0.0
230
-1.0
  0
SOLID
  5
2A18
  8
0
  6
CONTINUOUS
 10
-15523.460911397309
 20
11096.826243620741
 30
0.0
 11
-15800.87494558819
 21
11096.826243620741
 31
0.0
 12
-15800.87494558819
 22
11079.65006874053
 32
0.0
 13
-15800.87494558819
 23
11079.65006874053
 33
0.0
210
0.0
220
0.0
230
-1.0
  0
SOLID
  5
2A19
  8
0
  6
CONTINUOUS
 10
-14474.07494558818
 20
11096.826243620741
 30
0.0
 11
-14747.22441296718
 21
11079.65006874053
 31
0.0
 12
-14474.07494558818
 22
11079.65006874053
 32
0.0
 13
-14474.07494558818
 23
11079.65006874053
 33
0.0
210
0.0
220
0.0
230
-1.0
  0
SOLID
  5
2A1A
  8
0
  6
CONTINUOUS
 10
-14474.07494558818
 20
11096.826243620741
 30
0.0
 11
-14751.48897977906
 21
11096.826243620741
 31
0.0
 12
-14747.22441296718
 22
11079.65006874053
 32
0.0
 13
-14747.22441296718
 23
11079.65006874053
 33
0.0
210
0.0
220
0.0
230
-1.0
  0
SOLID
  5
2A1B
  8
0
  6
CONTINUOUS
 10
-15527.72547820919
 20
11079.65006874053
 30
0.0
 11
-15800.87494558819
 21
11066.874663363949
 31
0.0
 12
-15530.30341273617
 22
11066.874663363949
 32
0.0
 13
-15530.30341273617
 23
11066.874663363949
 33
0.0
210
0.0
220
0.0
230
-1.0
  0
SOLID
  5
2A1C
  8
0
  6
CONTINUOUS
 10
-15527.72547820919
 20
11079.65006874053
 30
0.0
 11
-15800.87494558819
 21
11079.65006874053
 31
0.0
 12
-15800.87494558819
 22
11066.874663363949
 32
0.0
 13
-15800.87494558819
 23
11066.874663363949
 33
0.0
210
0.0
220
0.0
230
-1.0
  0
SOLID
  5
2A1D
  8
0
  6
CONTINUOUS
 10
-14474.07494558818
 20
11079.65006874053
 30
0.0
 11
-14744.6464784402
 21
11066.874663363949
 31
0.0
 12
-14474.07494558818
 22
11066.874663363949
 32
0.0
 13
-14474.07494558818
 23
11066.874663363949
 33
0.0
210
0.0
220
0.0
230
-1.0
  0
SOLID
  5
2A1E
  8
0
  6
CONTINUOUS
 10
-14474.07494558818
 20
11079.65006874053
 30
0.0
 11
-14747.22441296718
 21
11079.65006874053
 31
0.0
 12
-14744.6464784402
 22
11066.874663363949
 32
0.0
 13
-14744.6464784402
 23
11066.874663363949
 33
0.0
210
0.0
220
0.0
230
-1.0
  0
SOLID
  5
2A1F
  8
0
  6
CONTINUOUS
 10
-15530.30341273617
 20
11066.874663363949
 30
0.0
 11
-15816.7144111404
 21
11062.302069382369
 31
0.0
 12
-15531.22611127727
 22
11062.302069382369
 32
0.0
 13
-15531.22611127727
 23
11062.302069382369
 33
0.0
210
0.0
220
0.0
230
-1.0
  0
SOLID
  5
2A20
  8
0
  6
CONTINUOUS
 10
-15530.30341273617
 20
11066.874663363949
 30
0.0
 11
-15800.87494558819
 21
11066.874663363949
 31
0.0
 12
-15816.7144111404
 22
11062.302069382369
 32
0.0
 13
-15816.7144111404
 23
11062.302069382369
 33
0.0
210
0.0
220
0.0
230
-1.0
  0
SOLID
  5
2A21
  8
0
  6
CONTINUOUS
 10
-14474.07494558818
 20
11066.874663363949
 30
0.0
 11
-14743.72377989909
 21
11062.302069382369
 31
0.0
 12
-14458.23548003597
 22
11062.302069382369
 32
0.0
 13
-14458.23548003597
 23
11062.302069382369
 33
0.0
210
0.0
220
0.0
230
-1.0
  0
SOLID
  5
2A22
  8
0
  6
CONTINUOUS
 10
-14474.07494558818
 20
11066.874663363949
 30
0.0
 11
-14744.6464784402
 21
11066.874663363949
 31
0.0
 12
-14743.72377989909
 22
11062.302069382369
 32
0.0
 13
-14743.72377989909
 23
11062.302069382369
 33
0.0
210
0.0
220
0.0
230
-1.0
  0
SOLID
  5
2A23
  8
0
  6
CONTINUOUS
 10
-15887.474945588179
 20
11141.874663363949
 30
0.0
 11
-16887.47494558819
 21
11044.816205069639
 31
0.0
 12
-15887.474945588179
 22
11044.816205069639
 32
0.0
 13
-15887.474945588179
 23
11044.816205069639
 33
0.0
210
0.0
220
0.0
230
-1.0
  0
SOLID
  5
2A24
  8
0
  6
CONTINUOUS
 10
-15887.474945588179
 20
11141.874663363949
 30
0.0
 11
-16887.47494558819
 21
11141.874663363949
 31
0.0
 12
-16887.47494558819
 22
11044.816205069639
 32
0.0
 13
-16887.47494558819
 23
11044.816205069639
 33
0.0
210
0.0
220
0.0
230
-1.0
  0
SOLID
  5
2A25
  8
0
  6
CONTINUOUS
 10
-15531.22611127727
 20
11062.302069382369
 30
0.0
 11
-15877.28544511968
 21
11044.816205069639
 31
0.0
 12
-15533.95595794795
 22
11044.816205069639
 32
0.0
 13
-15533.95595794795
 23
11044.816205069639
 33
0.0
210
0.0
220
0.0
230
-1.0
  0
SOLID
  5
2A26
  8
0
  6
CONTINUOUS
 10
-15531.22611127727
 20
11062.302069382369
 30
0.0
 11
-15816.7144111404
 21
11062.302069382369
 31
0.0
 12
-15877.28544511968
 22
11044.816205069639
 32
0.0
 13
-15877.28544511968
 23
11044.816205069639
 33
0.0
210
0.0
220
0.0
230
-1.0
  0
SOLID
  5
2A27
  8
0
  6
CONTINUOUS
 10
-14458.23548003597
 20
11062.302069382369
 30
0.0
 11
-14740.993933228419
 21
11044.816205069639
 31
0.0
 12
-14397.664446056689
 22
11044.816205069639
 32
0.0
 13
-14397.664446056689
 23
11044.816205069639
 33
0.0
210
0.0
220
0.0
230
-1.0
  0
SOLID
  5
2A28
  8
0
  6
CONTINUOUS
 10
-14458.23548003597
 20
11062.302069382369
 30
0.0
 11
-14743.72377989909
 21
11062.302069382369
 31
0.0
 12
-14740.993933228419
 22
11044.816205069639
 32
0.0
 13
-14740.993933228419
 23
11044.816205069639
 33
0.0
210
0.0
220
0.0
230
-1.0
  0
SOLID
  5
2A29
  8
0
  6
CONTINUOUS
 10
-15887.474945588179
 20
11044.816205069639
 30
0.0
 11
-16887.47494558819
 21
11041.874663363949
 31
0.0
 12
-15887.474945588179
 22
11041.874663363949
 32
0.0
 13
-15887.474945588179
 23
11041.874663363949
 33
0.0
210
0.0
220
0.0
230
-1.0
  0
SOLID
  5
2A2A
  8
0
  6
CONTINUOUS
 10
-15887.474945588179
 20
11044.816205069639
 30
0.0
 11
-16887.47494558819
 21
11044.816205069639
 31
0.0
 12
-16887.47494558819
 22
11041.874663363949
 32
0.0
 13
-16887.47494558819
 23
11041.874663363949
 33
0.0
210
0.0
220
0.0
230
-1.0
  0
SOLID
  5
2A2B
  8
0
  6
CONTINUOUS
 10
-15533.95595794795
 20
11044.816205069639
 30
0.0
 11
-15887.474945588179
 21
11041.874663363949
 31
0.0
 12
-15534.282683467251
 22
11041.874663363949
 32
0.0
 13
-15534.282683467251
 23
11041.874663363949
 33
0.0
210
0.0
220
0.0
230
-1.0
  0
SOLID
  5
2A2C
  8
0
  6
CONTINUOUS
 10
-15533.95595794795
 20
11044.816205069639
 30
0.0
 11
-15877.28544511968
 21
11044.816205069639
 31
0.0
 12
-15887.474945588179
 22
11041.874663363949
 32
0.0
 13
-15887.474945588179
 23
11041.874663363949
 33
0.0
210
0.0
220
0.0
230
-1.0
  0
SOLID
  5
2A2D
  8
0
  6
CONTINUOUS
 10
-14397.664446056689
 20
11044.816205069639
 30
0.0
 11
-14740.667207709121
 21
11041.874663363949
 31
0.0
 12
-14387.47494558819
 22
11041.874663363949
 32
0.0
 13
-14387.47494558819
 23
11041.874663363949
 33
0.0
210
0.0
220
0.0
230
-1.0
  0
SOLID
  5
2A2E
  8
0
  6
CONTINUOUS
 10
-14397.664446056689
 20
11044.816205069639
 30
0.0
 11
-14740.993933228419
 21
11044.816205069639
 31
0.0
 12
-14740.667207709121
 22
11041.874663363949
 32
0.0
 13
-14740.667207709121
 23
11041.874663363949
 33
0.0
210
0.0
220
0.0
230
-1.0
  0
SOLID
  5
2A2F
  8
0
  6
CONTINUOUS
 10
-13387.474945588179
 20
11141.874663363949
 30
0.0
 11
-14387.47494558819
 21
11041.874663363949
 31
0.0
 12
-13387.474945588179
 22
11041.874663363949
 32
0.0
 13
-13387.474945588179
 23
11041.874663363949
 33
0.0
210
0.0
220
0.0
230
-1.0
  0
SOLID
  5
2A30
  8
0
  6
CONTINUOUS
 10
-13387.474945588179
 20
11141.874663363949
 30
0.0
 11
-14387.47494558819
 21
11141.874663363949
 31
0.0
 12
-14387.47494558819
 22
11041.874663363949
 32
0.0
 13
-14387.47494558819
 23
11041.874663363949
 33
0.0
210
0.0
220
0.0
230
-1.0
  0
SOLID
  5
2A31
  8
0
  6
CONTINUOUS
 10
-15534.282683467251
 20
11041.874663363949
 30
0.0
 11
-16887.47494558819
 21
11027.226705202889
 31
0.0
 12
-15535.909674418161
 22
11027.226705202889
 32
0.0
 13
-15535.909674418161
 23
11027.226705202889
 33
0.0
210
0.0
220
0.0
230
-1.0
  0
SOLID
  5
2A32
  8
0
  6
CONTINUOUS
 10
-15534.282683467251
 20
11041.874663363949
 30
0.0
 11
-16887.47494558819
 21
11041.874663363949
 31
0.0
 12
-16887.47494558819
 22
11027.226705202889
 32
0.0
 13
-16887.47494558819
 23
11027.226705202889
 33
0.0
210
0.0
220
0.0
230
-1.0
  0
SOLID
  5
2A33
  8
0
  6
CONTINUOUS
 10
-13387.474945588179
 20
11041.874663363949
 30
0.0
 11
-14739.040216758211
 21
11027.226705202889
 31
0.0
 12
-13387.474945588179
 22
11027.226705202889
 32
0.0
 13
-13387.474945588179
 23
11027.226705202889
 33
0.0
210
0.0
220
0.0
230
-1.0
  0
SOLID
  5
2A34
  8
0
  6
CONTINUOUS
 10
-13387.474945588179
 20
11041.874663363949
 30
0.0
 11
-14740.667207709121
 21
11041.874663363949
 31
0.0
 12
-14739.040216758211
 22
11027.226705202889
 32
0.0
 13
-14739.040216758211
 23
11027.226705202889
 33
0.0
210
0.0
220
0.0
230
-1.0
  0
SOLID
  5
2A35
  8
0
  6
CONTINUOUS
 10
-15535.909674418161
 20
11027.226705202889
 30
0.0
 11
-16887.47494558819
 21
11009.5680020541
 31
0.0
 12
-15537.08343619617
 22
11009.5680020541
 32
0.0
 13
-15537.08343619617
 23
11009.5680020541
 33
0.0
210
0.0
220
0.0
230
-1.0
  0
SOLID
  5
2A36
  8
0
  6
CONTINUOUS
 10
-15535.909674418161
 20
11027.226705202889
 30
0.0
 11
-16887.47494558819
 21
11027.226705202889
 31
0.0
 12
-16887.47494558819
 22
11009.5680020541
 32
0.0
 13
-16887.47494558819
 23
11009.5680020541
 33
0.0
210
0.0
220
0.0
230
-1.0
  0
SOLID
  5
2A37
  8
0
  6
CONTINUOUS
 10
-13387.474945588179
 20
11027.226705202889
 30
0.0
 11
-14737.8664549802
 21
11009.5680020541
 31
0.0
 12
-13387.474945588179
 22
11009.5680020541
 32
0.0
 13
-13387.474945588179
 23
11009.5680020541
 33
0.0
210
0.0
220
0.0
230
-1.0
  0
SOLID
  5
2A38
  8
0
  6
CONTINUOUS
 10
-13387.474945588179
 20
11027.226705202889
 30
0.0
 11
-14739.040216758211
 21
11027.226705202889
 31
0.0
 12
-14737.8664549802
 22
11009.5680020541
 32
0.0
 13
-14737.8664549802
 23
11009.5680020541
 33
0.0
210
0.0
220
0.0
230
-1.0
  0
SOLID
  5
2A39
  8
0
  6
CONTINUOUS
 10
-15537.08343619617
 20
11009.5680020541
 30
0.0
 11
-16887.47494558819
 21
10991.874663363949
 31
0.0
 12
-15537.47494558819
 22
10991.874663363949
 32
0.0
 13
-15537.47494558819
 23
10991.874663363949
 33
0.0
210
0.0
220
0.0
230
-1.0
  0
SOLID
  5
2A3A
  8
0
  6
CONTINUOUS
 10
-15537.08343619617
 20
11009.5680020541
 30
0.0
 11
-16887.47494558819
 21
11009.5680020541
 31
0.0
 12
-16887.47494558819
 22
10991.874663363949
 32
0.0
 13
-16887.47494558819
 23
10991.874663363949
 33
0.0
210
0.0
220
0.0
230
-1.0
  0
SOLID
  5
2A3B
  8
0
  6
CONTINUOUS
 10
-13387.474945588179
 20
11009.5680020541
 30
0.0
 11
-14737.474945588179
 21
10991.874663363949
 31
0.0
 12
-13387.474945588179
 22
10991.874663363949
 32
0.0
 13
-13387.474945588179
 23
10991.874663363949
 33
0.0
210
0.0
220
0.0
230
-1.0
  0
SOLID
  5
2A3C
  8
0
  6
CONTINUOUS
 10
-13387.474945588179
 20
11009.5680020541
 30
0.0
 11
-14737.8664549802
 21
11009.5680020541
 31
0.0
 12
-14737.474945588179
 22
10991.874663363949
 32
0.0
 13
-14737.474945588179
 23
10991.874663363949
 33
0.0
210
0.0
220
0.0
230
-1.0
  0
SOLID
  5
2A3D
  8
0
  6
CONTINUOUS
 10
-15537.47494558819
 20
10991.874663363949
 30
0.0
 11
-16887.47494558819
 21
10974.1813246738
 31
0.0
 12
-15537.08343619617
 22
10974.1813246738
 32
0.0
 13
-15537.08343619617
 23
10974.1813246738
 33
0.0
210
0.0
220
0.0
230
-1.0
  0
SOLID
  5
2A3E
  8
0
  6
CONTINUOUS
 10
-15537.47494558819
 20
10991.874663363949
 30
0.0
 11
-16887.47494558819
 21
10991.874663363949
 31
0.0
 12
-16887.47494558819
 22
10974.1813246738
 32
0.0
 13
-16887.47494558819
 23
10974.1813246738
 33
0.0
210
0.0
220
0.0
230
-1.0
  0
SOLID
  5
2A3F
  8
0
  6
CONTINUOUS
 10
-13387.474945588179
 20
10991.874663363949
 30
0.0
 11
-14737.8664549802
 21
10974.1813246738
 31
0.0
 12
-13387.474945588179
 22
10974.1813246738
 32
0.0
 13
-13387.474945588179
 23
10974.1813246738
 33
0.0
210
0.0
220
0.0
230
-1.0
  0
SOLID
  5
2A40
  8
0
  6
CONTINUOUS
 10
-13387.474945588179
 20
10991.874663363949
 30
0.0
 11
-14737.474945588179
 21
10991.874663363949
 31
0.0
 12
-14737.8664549802
 22
10974.1813246738
 32
0.0
 13
-14737.8664549802
 23
10974.1813246738
 33
0.0
210
0.0
220
0.0
230
-1.0
  0
SOLID
  5
2A41
  8
0
  6
CONTINUOUS
 10
-15537.08343619617
 20
10974.1813246738
 30
0.0
 11
-16887.47494558819
 21
10956.52262152501
 31
0.0
 12
-15535.909674418161
 22
10956.52262152501
 32
0.0
 13
-15535.909674418161
 23
10956.52262152501
 33
0.0
210
0.0
220
0.0
230
-1.0
  0
SOLID
  5
2A42
  8
0
  6
CONTINUOUS
 10
-15537.08343619617
 20
10974.1813246738
 30
0.0
 11
-16887.47494558819
 21
10974.1813246738
 31
0.0
 12
-16887.47494558819
 22
10956.52262152501
 32
0.0
 13
-16887.47494558819
 23
10956.52262152501
 33
0.0
210
0.0
220
0.0
230
-1.0
  0
SOLID
  5
2A43
  8
0
  6
CONTINUOUS
 10
-13387.474945588179
 20
10974.1813246738
 30
0.0
 11
-14739.040216758211
 21
10956.52262152501
 31
0.0
 12
-13387.474945588179
 22
10956.52262152501
 32
0.0
 13
-13387.474945588179
 23
10956.52262152501
 33
0.0
210
0.0
220
0.0
230
-1.0
  0
SOLID
  5
2A44
  8
0
  6
CONTINUOUS
 10
-13387.474945588179
 20
10974.1813246738
 30
0.0
 11
-14737.8664549802
 21
10974.1813246738
 31
0.0
 12
-14739.040216758211
 22
10956.52262152501
 32
0.0
 13
-14739.040216758211
 23
10956.52262152501
 33
0.0
210
0.0
220
0.0
230
-1.0
  0
SOLID
  5
2A45
  8
0
  6
CONTINUOUS
 10
-15535.909674418161
 20
10956.52262152501
 30
0.0
 11
-16887.47494558819
 21
10941.874663363949
 31
0.0
 12
-15534.282683467251
 22
10941.874663363949
 32
0.0
 13
-15534.282683467251
 23
10941.874663363949
 33
0.0
210
0.0
220
0.0
230
-1.0
  0
SOLID
  5
2A46
  8
0
  6
CONTINUOUS
 10
-15535.909674418161
 20
10956.52262152501
 30
0.0
 11
-16887.47494558819
 21
10956.52262152501
 31
0.0
 12
-16887.47494558819
 22
10941.874663363949
 32
0.0
 13
-16887.47494558819
 23
10941.874663363949
 33
0.0
210
0.0
220
0.0
230
-1.0
  0
SOLID
  5
2A47
  8
0
  6
CONTINUOUS
 10
-13387.474945588179
 20
10956.52262152501
 30
0.0
 11
-14740.667207709121
 21
10941.874663363949
 31
0.0
 12
-13387.474945588179
 22
10941.874663363949
 32
0.0
 13
-13387.474945588179
 23
10941.874663363949
 33
0.0
210
0.0
220
0.0
230
-1.0
  0
SOLID
  5
2A48
  8
0
  6
CONTINUOUS
 10
-13387.474945588179
 20
10956.52262152501
 30
0.0
 11
-14739.040216758211
 21
10956.52262152501
 31
0.0
 12
-14740.667207709121
 22
10941.874663363949
 32
0.0
 13
-14740.667207709121
 23
10941.874663363949
 33
0.0
210
0.0
220
0.0
230
-1.0
  0
SOLID
  5
2A49
  8
0
  6
CONTINUOUS
 10
-15534.282683467251
 20
10941.874663363949
 30
0.0
 11
-15877.28544511968
 21
10938.93312165826
 31
0.0
 12
-15533.95595794795
 22
10938.93312165826
 32
0.0
 13
-15533.95595794795
 23
10938.93312165826
 33
0.0
210
0.0
220
0.0
230
-1.0
  0
SOLID
  5
2A4A
  8
0
  6
CONTINUOUS
 10
-15534.282683467251
 20
10941.874663363949
 30
0.0
 11
-15887.474945588179
 21
10941.874663363949
 31
0.0
 12
-15877.28544511968
 22
10938.93312165826
 32
0.0
 13
-15877.28544511968
 23
10938.93312165826
 33
0.0
210
0.0
220
0.0
230
-1.0
  0
SOLID
  5
2A4B
  8
0
  6
CONTINUOUS
 10
-14387.47494558819
 20
10941.874663363949
 30
0.0
 11
-14740.993933228419
 21
10938.93312165826
 31
0.0
 12
-14397.664446056689
 22
10938.93312165826
 32
0.0
 13
-14397.664446056689
 23
10938.93312165826
 33
0.0
210
0.0
220
0.0
230
-1.0
  0
SOLID
  5
2A4C
  8
0
  6
CONTINUOUS
 10
-14387.47494558819
 20
10941.874663363949
 30
0.0
 11
-14740.667207709121
 21
10941.874663363949
 31
0.0
 12
-14740.993933228419
 22
10938.93312165826
 32
0.0
 13
-14740.993933228419
 23
10938.93312165826
 33
0.0
210
0.0
220
0.0
230
-1.0
  0
SOLID
  5
2A4D
  8
0
  6
CONTINUOUS
 10
-15533.95595794795
 20
10938.93312165826
 30
0.0
 11
-15816.7144111404
 21
10921.44725734554
 31
0.0
 12
-15531.226111277279
 22
10921.44725734554
 32
0.0
 13
-15531.226111277279
 23
10921.44725734554
 33
0.0
210
0.0
220
0.0
230
-1.0
  0
SOLID
  5
2A4E
  8
0
  6
CONTINUOUS
 10
-15533.95595794795
 20
10938.93312165826
 30
0.0
 11
-15877.28544511968
 21
10938.93312165826
 31
0.0
 12
-15816.7144111404
 22
10921.44725734554
 32
0.0
 13
-15816.7144111404
 23
10921.44725734554
 33
0.0
210
0.0
220
0.0
230
-1.0
  0
SOLID
  5
2A4F
  8
0
  6
CONTINUOUS
 10
-14397.664446056689
 20
10938.93312165826
 30
0.0
 11
-14743.723779899099
 21
10921.44725734554
 31
0.0
 12
-14458.23548003597
 22
10921.44725734554
 32
0.0
 13
-14458.23548003597
 23
10921.44725734554
 33
0.0
210
0.0
220
0.0
230
-1.0
  0
SOLID
  5
2A50
  8
0
  6
CONTINUOUS
 10
-14397.664446056689
 20
10938.93312165826
 30
0.0
 11
-14740.993933228419
 21
10938.93312165826
 31
0.0
 12
-14743.723779899099
 22
10921.44725734554
 32
0.0
 13
-14743.723779899099
 23
10921.44725734554
 33
0.0
210
0.0
220
0.0
230
-1.0
  0
SOLID
  5
2A51
  8
0
  6
CONTINUOUS
 10
-15531.226111277279
 20
10921.44725734554
 30
0.0
 11
-15800.87494558819
 21
10916.874663363949
 31
0.0
 12
-15530.30341273617
 22
10916.874663363949
 32
0.0
 13
-15530.30341273617
 23
10916.874663363949
 33
0.0
210
0.0
220
0.0
230
-1.0
  0
SOLID
  5
2A52
  8
0
  6
CONTINUOUS
 10
-15531.226111277279
 20
10921.44725734554
 30
0.0
 11
-15816.7144111404
 21
10921.44725734554
 31
0.0
 12
-15800.87494558819
 22
10916.874663363949
 32
0.0
 13
-15800.87494558819
 23
10916.874663363949
 33
0.0
210
0.0
220
0.0
230
-1.0
  0
SOLID
  5
2A53
  8
0
  6
CONTINUOUS
 10
-14458.23548003597
 20
10921.44725734554
 30
0.0
 11
-14744.6464784402
 21
10916.874663363949
 31
0.0
 12
-14474.07494558818
 22
10916.874663363949
 32
0.0
 13
-14474.07494558818
 23
10916.874663363949
 33
0.0
210
0.0
220
0.0
230
-1.0
  0
SOLID
  5
2A54
  8
0
  6
CONTINUOUS
 10
-14458.23548003597
 20
10921.44725734554
 30
0.0
 11
-14743.723779899099
 21
10921.44725734554
 31
0.0
 12
-14744.6464784402
 22
10916.874663363949
 32
0.0
 13
-14744.6464784402
 23
10916.874663363949
 33
0.0
210
0.0
220
0.0
230
-1.0
  0
SOLID
  5
2A55
  8
0
  6
CONTINUOUS
 10
-15530.30341273617
 20
10916.874663363949
 30
0.0
 11
-15800.87494558819
 21
10904.099257987369
 31
0.0
 12
-15527.72547820919
 22
10904.099257987369
 32
0.0
 13
-15527.72547820919
 23
10904.099257987369
 33
0.0
210
0.0
220
0.0
230
-1.0
  0
SOLID
  5
2A56
  8
0
  6
CONTINUOUS
 10
-15530.30341273617
 20
10916.874663363949
 30
0.0
 11
-15800.87494558819
 21
10916.874663363949
 31
0.0
 12
-15800.87494558819
 22
10904.099257987369
 32
0.0
 13
-15800.87494558819
 23
10904.099257987369
 33
0.0
210
0.0
220
0.0
230
-1.0
  0
SOLID
  5
2A57
  8
0
  6
CONTINUOUS
 10
-14474.07494558818
 20
10916.874663363949
 30
0.0
 11
-14747.22441296718
 21
10904.099257987369
 31
0.0
 12
-14474.07494558818
 22
10904.099257987369
 32
0.0
 13
-14474.07494558818
 23
10904.099257987369
 33
0.0
210
0.0
220
0.0
230
-1.0
  0
SOLID
  5
2A58
  8
0
  6
CONTINUOUS
 10
-14474.07494558818
 20
10916.874663363949
 30
0.0
 11
-14744.6464784402
 21
10916.874663363949
 31
0.0
 12
-14747.22441296718
 22
10904.099257987369
 32
0.0
 13
-14747.22441296718
 23
10904.099257987369
 33
0.0
210
0.0
220
0.0
230
-1.0
  0
SOLID
  5
2A59
  8
0
  6
CONTINUOUS
 10
-15527.72547820919
 20
10904.099257987369
 30
0.0
 11
-15800.87494558819
 21
10886.92308310716
 31
0.0
 12
-15523.460911397309
 22
10886.92308310716
 32
0.0
 13
-15523.460911397309
 23
10886.92308310716
 33
0.0
210
0.0
220
0.0
230
-1.0
  0
SOLID
  5
2A5A
  8
0
  6
CONTINUOUS
 10
-15527.72547820919
 20
10904.099257987369
 30
0.0
 11
-15800.87494558819
 21
10904.099257987369
 31
0.0
 12
-15800.87494558819
 22
10886.92308310716
 32
0.0
 13
-15800.87494558819
 23
10886.92308310716
 33
0.0
210
0.0
220
0.0
230
-1.0
  0
SOLID
  5
2A5B
  8
0
  6
CONTINUOUS
 10
-14474.07494558818
 20
10904.099257987369
 30
0.0
 11
-14751.48897977906
 21
10886.92308310716
 31
0.0
 12
-14474.07494558818
 22
10886.92308310716
 32
0.0
 13
-14474.07494558818
 23
10886.92308310716
 33
0.0
210
0.0
220
0.0
230
-1.0
  0
SOLID
  5
2A5C
  8
0
  6
CONTINUOUS
 10
-14474.07494558818
 20
10904.099257987369
 30
0.0
 11
-14747.22441296718
 21
10904.099257987369
 31
0.0
 12
-14751.48897977906
 22
10886.92308310716
 32
0.0
 13
-14751.48897977906
 23
10886.92308310716
 33
0.0
210
0.0
220
0.0
230
-1.0
  0
SOLID
  5
2A5D
  8
0
  6
CONTINUOUS
 10
-15523.460911397309
 20
10886.92308310716
 30
0.0
 11
-15800.87494558819
 21
10869.95235587384
 31
0.0
 12
-15518.44075893144
 22
10869.95235587384
 32
0.0
 13
-15518.44075893144
 23
10869.95235587384
 33
0.0
210
0.0
220
0.0
230
-1.0
  0
SOLID
  5
2A5E
  8
0
  6
CONTINUOUS
 10
-15523.460911397309
 20
10886.92308310716
 30
0.0
 11
-15800.87494558819
 21
10886.92308310716
 31
0.0
 12
-15800.87494558819
 22
10869.95235587384
 32
0.0
 13
-15800.87494558819
 23
10869.95235587384
 33
0.0
210
0.0
220
0.0
230
-1.0
  0
SOLID
  5
2A5F
  8
0
  6
CONTINUOUS
 10
-14474.07494558818
 20
10886.92308310716
 30
0.0
 11
-14756.50913224493
 21
10869.95235587384
 31
0.0
 12
-14474.07494558818
 22
10869.95235587384
 32
0.0
 13
-14474.07494558818
 23
10869.95235587384
 33
0.0
210
0.0
220
0.0
230
-1.0
  0
SOLID
  5
2A60
  8
0
  6
CONTINUOUS
 10
-14474.07494558818
 20
10886.92308310716
 30
0.0
 11
-14751.48897977906
 21
10886.92308310716
 31
0.0
 12
-14756.50913224493
 22
10869.95235587384
 32
0.0
 13
-14756.50913224493
 23
10869.95235587384
 33
0.0
210
0.0
220
0.0
230
-1.0
  0
SOLID
  5
2A61
  8
0
  6
CONTINUOUS
 10
-15518.44075893144
 20
10869.95235587384
 30
0.0
 11
-15800.87494558819
 21
10866.874663363949
 31
0.0
 12
-15517.380178082831
 22
10866.874663363949
 32
0.0
 13
-15517.380178082831
 23
10866.874663363949
 33
0.0
210
0.0
220
0.0
230
-1.0
  0
SOLID
  5
2A62
  8
0
  6
CONTINUOUS
 10
-15518.44075893144
 20
10869.95235587384
 30
0.0
 11
-15800.87494558819
 21
10869.95235587384
 31
0.0
 12
-15800.87494558819
 22
10866.874663363949
 32
0.0
 13
-15800.87494558819
 23
10866.874663363949
 33
0.0
210
0.0
220
0.0
230
-1.0
  0
SOLID
  5
2A63
  8
0
  6
CONTINUOUS
 10
-14474.07494558818
 20
10869.95235587384
 30
0.0
 11
-14757.56971309354
 21
10866.874663363949
 31
0.0
 12
-14474.07494558818
 22
10866.874663363949
 32
0.0
 13
-14474.07494558818
 23
10866.874663363949
 33
0.0
210
0.0
220
0.0
230
-1.0
  0
SOLID
  5
2A64
  8
0
  6
CONTINUOUS
 10
-14474.07494558818
 20
10869.95235587384
 30
0.0
 11
-14756.50913224493
 21
10869.95235587384
 31
0.0
 12
-14757.56971309354
 22
10866.874663363949
 32
0.0
 13
-14757.56971309354
 23
10866.874663363949
 33
0.0
210
0.0
220
0.0
230
-1.0
  0
SOLID
  5
2A65
  8
0
  6
CONTINUOUS
 10
-15887.474945588179
 20
10941.874663363949
 30
0.0
 11
-16887.47494558819
 21
10853.2202972829
 31
0.0
 12
-15887.474945588179
 22
10853.2202972829
 32
0.0
 13
-15887.474945588179
 23
10853.2202972829
 33
0.0
210
0.0
220
0.0
230
-1.0
  0
SOLID
  5
2A66
  8
0
  6
CONTINUOUS
 10
-15887.474945588179
 20
10941.874663363949
 30
0.0
 11
-16887.47494558819
 21
10941.874663363949
 31
0.0
 12
-16887.47494558819
 22
10853.2202972829
 32
0.0
 13
-16887.47494558819
 23
10853.2202972829
 33
0.0
210
0.0
220
0.0
230
-1.0
  0
SOLID
  5
2A67
  8
0
  6
CONTINUOUS
 10
-15517.380178082831
 20
10866.874663363949
 30
0.0
 11
-15848.17366969294
 21
10853.2202972829
 31
0.0
 12
-15512.67484799577
 22
10853.2202972829
 32
0.0
 13
-15512.67484799577
 23
10853.2202972829
 33
0.0
210
0.0
220
0.0
230
-1.0
  0
SOLID
  5
2A68
  8
0
  6
CONTINUOUS
 10
-15517.380178082831
 20
10866.874663363949
 30
0.0
 11
-15800.87494558819
 21
10866.874663363949
 31
0.0
 12
-15848.17366969294
 22
10853.2202972829
 32
0.0
 13
-15848.17366969294
 23
10853.2202972829
 33
0.0
210
0.0
220
0.0
230
-1.0
  0
SOLID
  5
2A69
  8
0
  6
CONTINUOUS
 10
-14474.07494558818
 20
10866.874663363949
 30
0.0
 11
-14762.2750431806
 21
10853.2202972829
 31
0.0
 12
-14426.776221483429
 22
10853.2202972829
 32
0.0
 13
-14426.776221483429
 23
10853.2202972829
 33
0.0
210
0.0
220
0.0
230
-1.0
  0
SOLID
  5
2A6A
  8
0
  6
CONTINUOUS
 10
-14474.07494558818
 20
10866.874663363949
 30
0.0
 11
-14757.56971309354
 21
10866.874663363949
 31
0.0
 12
-14762.2750431806
 22
10853.2202972829
 32
0.0
 13
-14762.2750431806
 23
10853.2202972829
 33
0.0
210
0.0
220
0.0
230
-1.0
  0
SOLID
  5
2A6B
  8
0
  6
CONTINUOUS
 10
-15887.474945588179
 20
10853.2202972829
 30
0.0
 11
-16887.47494558819
 21
10841.874663363949
 31
0.0
 12
-15887.474945588179
 22
10841.874663363949
 32
0.0
 13
-15887.474945588179
 23
10841.874663363949
 33
0.0
210
0.0
220
0.0
230
-1.0
  0
SOLID
  5
2A6C
  8
0
  6
CONTINUOUS
 10
-15887.474945588179
 20
10853.2202972829
 30
0.0
 11
-16887.47494558819
 21
10853.2202972829
 31
0.0
 12
-16887.47494558819
 22
10841.874663363949
 32
0.0
 13
-16887.47494558819
 23
10841.874663363949
 33
0.0
210
0.0
220
0.0
230
-1.0
  0
SOLID
  5
2A6D
  8
0
  6
CONTINUOUS
 10
-15512.67484799577
 20
10853.2202972829
 30
0.0
 11
-15887.474945588179
 21
10841.874663363949
 31
0.0
 12
-15508.194403988189
 22
10841.874663363949
 32
0.0
 13
-15508.194403988189
 23
10841.874663363949
 33
0.0
210
0.0
220
0.0
230
-1.0
  0
SOLID
  5
2A6E
  8
0
  6
CONTINUOUS
 10
-15512.67484799577
 20
10853.2202972829
 30
0.0
 11
-15848.17366969294
 21
10853.2202972829
 31
0.0
 12
-15887.474945588179
 22
10841.874663363949
 32
0.0
 13
-15887.474945588179
 23
10841.874663363949
 33
0.0
210
0.0
220
0.0
230
-1.0
  0
SOLID
  5
2A6F
  8
0
  6
CONTINUOUS
 10
-14426.776221483429
 20
10853.2202972829
 30
0.0
 11
-14766.75548718818
 21
10841.874663363949
 31
0.0
 12
-14387.47494558819
 22
10841.874663363949
 32
0.0
 13
-14387.47494558819
 23
10841.874663363949
 33
0.0
210
0.0
220
0.0
230
-1.0
  0
SOLID
  5
2A70
  8
0
  6
CONTINUOUS
 10
-14426.776221483429
 20
10853.2202972829
 30
0.0
 11
-14762.2750431806
 21
10853.2202972829
 31
0.0
 12
-14766.75548718818
 22
10841.874663363949
 32
0.0
 13
-14766.75548718818
 23
10841.874663363949
 33
0.0
210
0.0
220
0.0
230
-1.0
  0
SOLID
  5
2A71
  8
0
  6
CONTINUOUS
 10
-13387.474945588179
 20
10941.874663363949
 30
0.0
 11
-14387.47494558819
 21
10841.874663363949
 31
0.0
 12
-13387.474945588179
 22
10841.874663363949
 32
0.0
 13
-13387.474945588179
 23
10841.874663363949
 33
0.0
210
0.0
220
0.0
230
-1.0
  0
SOLID
  5
2A72
  8
0
  6
CONTINUOUS
 10
-13387.474945588179
 20
10941.874663363949
 30
0.0
 11
-14387.47494558819
 21
10941.874663363949
 31
0.0
 12
-14387.47494558819
 22
10841.874663363949
 32
0.0
 13
-14387.47494558819
 23
10841.874663363949
 33
0.0
210
0.0
220
0.0
230
-1.0
  0
SOLID
  5
2A73
  8
0
  6
CONTINUOUS
 10
-15508.194403988189
 20
10841.874663363949
 30
0.0
 11
-16887.47494558819
 21
10836.75966112479
 31
0.0
 12
-15506.174465631741
 22
10836.75966112479
 32
0.0
 13
-15506.174465631741
 23
10836.75966112479
 33
0.0
210
0.0
220
0.0
230
-1.0
  0
SOLID
  5
2A74
  8
0
  6
CONTINUOUS
 10
-15508.194403988189
 20
10841.874663363949
 30
0.0
 11
-16887.47494558819
 21
10841.874663363949
 31
0.0
 12
-16887.47494558819
 22
10836.75966112479
 32
0.0
 13
-16887.47494558819
 23
10836.75966112479
 33
0.0
210
0.0
220
0.0
230
-1.0
  0
SOLID
  5
2A75
  8
0
  6
CONTINUOUS
 10
-13387.474945588179
 20
10841.874663363949
 30
0.0
 11
-14768.77542554464
 21
10836.75966112479
 31
0.0
 12
-13387.474945588179
 22
10836.75966112479
 32
0.0
 13
-13387.474945588179
 23
10836.75966112479
 33
0.0
210
0.0
220
0.0
230
-1.0
  0
SOLID
  5
2A76
  8
0
  6
CONTINUOUS
 10
-13387.474945588179
 20
10841.874663363949
 30
0.0
 11
-14766.75548718818
 21
10841.874663363949
 31
0.0
 12
-14768.77542554464
 22
10836.75966112479
 32
0.0
 13
-14768.77542554464
 23
10836.75966112479
 33
0.0
210
0.0
220
0.0
230
-1.0
  0
SOLID
  5
2A77
  8
0
  6
CONTINUOUS
 10
-15506.174465631741
 20
10836.75966112479
 30
0.0
 11
-16887.47494558819
 21
10820.602669867771
 31
0.0
 12
-15498.95233664306
 22
10820.602669867771
 32
0.0
 13
-15498.95233664306
 23
10820.602669867771
 33
0.0
210
0.0
220
0.0
230
-1.0
  0
SOLID
  5
2A78
  8
0
  6
CONTINUOUS
 10
-15506.174465631741
 20
10836.75966112479
 30
0.0
 11
-16887.47494558819
 21
10836.75966112479
 31
0.0
 12
-16887.47494558819
 22
10820.602669867771
 32
0.0
 13
-16887.47494558819
 23
10820.602669867771
 33
0.0
210
0.0
220
0.0
230
-1.0
  0
SOLID
  5
2A79
  8
0
  6
CONTINUOUS
 10
-13387.474945588179
 20
10836.75966112479
 30
0.0
 11
-14775.9975545333
 21
10820.602669867771
 31
0.0
 12
-13387.474945588179
 22
10820.602669867771
 32
0.0
 13
-13387.474945588179
 23
10820.602669867771
 33
0.0
210
0.0
220
0.0
230
-1.0
  0
SOLID
  5
2A7A
  8
0
  6
CONTINUOUS
 10
-13387.474945588179
 20
10836.75966112479
 30
0.0
 11
-14768.77542554464
 21
10836.75966112479
 31
0.0
 12
-14775.9975545333
 22
10820.602669867771
 32
0.0
 13
-14775.9975545333
 23
10820.602669867771
 33
0.0
210
0.0
220
0.0
230
-1.0
  0
SOLID
  5
2A7B
  8
0
  6
CONTINUOUS
 10
-15498.95233664306
 20
10820.602669867771
 30
0.0
 11
-16887.47494558819
 21
10804.78095158096
 31
0.0
 12
-15491.02259868641
 22
10804.78095158096
 32
0.0
 13
-15491.02259868641
 23
10804.78095158096
 33
0.0
210
0.0
220
0.0
230
-1.0
  0
SOLID
  5
2A7C
  8
0
  6
CONTINUOUS
 10
-15498.95233664306
 20
10820.602669867771
 30
0.0
 11
-16887.47494558819
 21
10820.602669867771
 31
0.0
 12
-16887.47494558819
 22
10804.78095158096
 32
0.0
 13
-16887.47494558819
 23
10804.78095158096
 33
0.0
210
0.0
220
0.0
230
-1.0
  0
SOLID
  5
2A7D
  8
0
  6
CONTINUOUS
 10
-13387.474945588179
 20
10820.602669867771
 30
0.0
 11
-14783.92729248996
 21
10804.78095158096
 31
0.0
 12
-13387.474945588179
 22
10804.78095158096
 32
0.0
 13
-13387.474945588179
 23
10804.78095158096
 33
0.0
210
0.0
220
0.0
230
-1.0
  0
SOLID
  5
2A7E
  8
0
  6
CONTINUOUS
 10
-13387.474945588179
 20
10820.602669867771
 30
0.0
 11
-14775.9975545333
 21
10820.602669867771
 31
0.0
 12
-14783.92729248996
 22
10804.78095158096
 32
0.0
 13
-14783.92729248996
 23
10804.78095158096
 33
0.0
210
0.0
220
0.0
230
-1.0
  0
SOLID
  5
2A7F
  8
0
  6
CONTINUOUS
 10
-15491.02259868641
 20
10804.78095158096
 30
0.0
 11
-16887.47494558819
 21
10789.32547802089
 31
0.0
 12
-15482.400774596201
 22
10789.32547802089
 32
0.0
 13
-15482.400774596201
 23
10789.32547802089
 33
0.0
210
0.0
220
0.0
230
-1.0
  0
SOLID
  5
2A80
  8
0
  6
CONTINUOUS
 10
-15491.02259868641
 20
10804.78095158096
 30
0.0
 11
-16887.47494558819
 21
10804.78095158096
 31
0.0
 12
-16887.47494558819
 22
10789.32547802089
 32
0.0
 13
-16887.47494558819
 23
10789.32547802089
 33
0.0
210
0.0
220
0.0
230
-1.0
  0
SOLID
  5
2A81
  8
0
  6
CONTINUOUS
 10
-13387.474945588179
 20
10804.78095158096
 30
0.0
 11
-14792.54911658017
 21
10789.32547802089
 31
0.0
 12
-13387.474945588179
 22
10789.32547802089
 32
0.0
 13
-13387.474945588179
 23
10789.32547802089
 33
0.0
210
0.0
220
0.0
230
-1.0
  0
SOLID
  5
2A82
  8
0
  6
CONTINUOUS
 10
-13387.474945588179
 20
10804.78095158096
 30
0.0
 11
-14783.92729248996
 21
10804.78095158096
 31
0.0
 12
-14792.54911658017
 22
10789.32547802089
 32
0.0
 13
-14792.54911658017
 23
10789.32547802089
 33
0.0
210
0.0
220
0.0
230
-1.0
  0
SOLID
  5
2A83
  8
0
  6
CONTINUOUS
 10
-15482.400774596201
 20
10789.32547802089
 30
0.0
 11
-16887.47494558819
 21
10774.266504002861
 31
0.0
 12
-15473.10374199796
 22
10774.266504002861
 32
0.0
 13
-15473.10374199796
 23
10774.266504002861
 33
0.0
210
0.0
220
0.0
230
-1.0
  0
SOLID
  5
2A84
  8
0
  6
CONTINUOUS
 10
-15482.400774596201
 20
10789.32547802089
 30
0.0
 11
-16887.47494558819
 21
10789.32547802089
 31
0.0
 12
-16887.47494558819
 22
10774.266504002861
 32
0.0
 13
-16887.47494558819
 23
10774.266504002861
 33
0.0
210
0.0
220
0.0
230
-1.0
  0
SOLID
  5
2A85
  8
0
  6
CONTINUOUS
 10
-13387.474945588179
 20
10789.32547802089
 30
0.0
 11
-14801.846149178409
 21
10774.266504002861
 31
0.0
 12
-13387.474945588179
 22
10774.266504002861
 32
0.0
 13
-13387.474945588179
 23
10774.266504002861
 33
0.0
210
0.0
220
0.0
230
-1.0
  0
SOLID
  5
2A86
  8
0
  6
CONTINUOUS
 10
-13387.474945588179
 20
10789.32547802089
 30
0.0
 11
-14792.54911658017
 21
10789.32547802089
 31
0.0
 12
-14801.846149178409
 22
10774.266504002861
 32
0.0
 13
-14801.846149178409
 23
10774.266504002861
 33
0.0
210
0.0
220
0.0
230
-1.0
  0
SOLID
  5
2A87
  8
0
  6
CONTINUOUS
 10
-15473.10374199796
 20
10774.266504002861
 30
0.0
 11
-16887.47494558819
 21
10759.633508175661
 31
0.0
 12
-15463.149700269611
 22
10759.633508175661
 32
0.0
 13
-15463.149700269611
 23
10759.633508175661
 33
0.0
210
0.0
220
0.0
230
-1.0
  0
SOLID
  5
2A88
  8
0
  6
CONTINUOUS
 10
-15473.10374199796
 20
10774.266504002861
 30
0.0
 11
-16887.47494558819
 21
10774.266504002861
 31
0.0
 12
-16887.47494558819
 22
10759.633508175661
 32
0.0
 13
-16887.47494558819
 23
10759.633508175661
 33
0.0
210
0.0
220
0.0
230
-1.0
  0
SOLID
  5
2A89
  8
0
  6
CONTINUOUS
 10
-13387.474945588179
 20
10774.266504002861
 30
0.0
 11
-14811.800190906761
 21
10759.633508175661
 31
0.0
 12
-13387.474945588179
 22
10759.633508175661
 32
0.0
 13
-13387.474945588179
 23
10759.633508175661
 33
0.0
210
0.0
220
0.0
230
-1.0
  0
SOLID
  5
2A8A
  8
0
  6
CONTINUOUS
 10
-13387.474945588179
 20
10774.266504002861
 30
0.0
 11
-14801.846149178409
 21
10774.266504002861
 31
0.0
 12
-14811.800190906761
 22
10759.633508175661
 32
0.0
 13
-14811.800190906761
 23
10759.633508175661
 33
0.0
210
0.0
220
0.0
230
-1.0
  0
SOLID
  5
2A8B
  8
0
  6
CONTINUOUS
 10
-15463.149700269611
 20
10759.633508175661
 30
0.0
 11
-16887.47494558819
 21
10745.455135315809
 31
0.0
 12
-15452.558134915271
 22
10745.455135315809
 32
0.0
 13
-15452.558134915271
 23
10745.455135315809
 33
0.0
210
0.0
220
0.0
230
-1.0
  0
SOLID
  5
2A8C
  8
0
  6
CONTINUOUS
 10
-15463.149700269611
 20
10759.633508175661
 30
0.0
 11
-16887.47494558819
 21
10759.633508175661
 31
0.0
 12
-16887.47494558819
 22
10745.455135315809
 32
0.0
 13
-16887.47494558819
 23
10745.455135315809
 33
0.0
210
0.0
220
0.0
230
-1.0
  0
SOLID
  5
2A8D
  8
0
  6
CONTINUOUS
 10
-13387.474945588179
 20
10759.633508175661
 30
0.0
 11
-14822.3917562611
 21
10745.455135315809
 31
0.0
 12
-13387.474945588179
 22
10745.455135315809
 32
0.0
 13
-13387.474945588179
 23
10745.455135315809
 33
0.0
210
0.0
220
0.0
230
-1.0
  0
SOLID
  5
2A8E
  8
0
  6
CONTINUOUS
 10
-13387.474945588179
 20
10759.633508175661
 30
0.0
 11
-14811.800190906761
 21
10759.633508175661
 31
0.0
 12
-14822.3917562611
 22
10745.455135315809
 32
0.0
 13
-14822.3917562611
 23
10745.455135315809
 33
0.0
210
0.0
220
0.0
230
-1.0
  0
SOLID
  5
2A8F
  8
0
  6
CONTINUOUS
 10
-15452.558134915271
 20
10745.455135315809
 30
0.0
 11
-16887.47494558819
 21
10741.874663363949
 31
0.0
 12
-15449.6279934914
 22
10741.874663363949
 32
0.0
 13
-15449.6279934914
 23
10741.874663363949
 33
0.0
210
0.0
220
0.0
230
-1.0
  0
SOLID
  5
2A90
  8
0
  6
CONTINUOUS
 10
-15452.558134915271
 20
10745.455135315809
 30
0.0
 11
-16887.47494558819
 21
10745.455135315809
 31
0.0
 12
-16887.47494558819
 22
10741.874663363949
 32
0.0
 13
-16887.47494558819
 23
10741.874663363949
 33
0.0
210
0.0
220
0.0
230
-1.0
  0
SOLID
  5
2A91
  8
0
  6
CONTINUOUS
 10
-13387.474945588179
 20
10745.455135315809
 30
0.0
 11
-14825.321897684969
 21
10741.874663363949
 31
0.0
 12
-13387.474945588179
 22
10741.874663363949
 32
0.0
 13
-13387.474945588179
 23
10741.874663363949
 33
0.0
210
0.0
220
0.0
230
-1.0
  0
SOLID
  5
2A92
  8
0
  6
CONTINUOUS
 10
-13387.474945588179
 20
10745.455135315809
 30
0.0
 11
-14822.3917562611
 21
10745.455135315809
 31
0.0
 12
-14825.321897684969
 22
10741.874663363949
 32
0.0
 13
-14825.321897684969
 23
10741.874663363949
 33
0.0
210
0.0
220
0.0
230
-1.0
  0
SOLID
  5
2A93
  8
0
  6
CONTINUOUS
 10
-15449.6279934914
 20
10741.874663363949
 30
0.0
 11
-15852.434773535229
 21
10731.75914025398
 31
0.0
 12
-15441.3497794215
 22
10731.75914025398
 32
0.0
 13
-15441.3497794215
 23
10731.75914025398
 33
0.0
210
0.0
220
0.0
230
-1.0
  0
SOLID
  5
2A94
  8
0
  6
CONTINUOUS
 10
-15449.6279934914
 20
10741.874663363949
 30
0.0
 11
-15887.474945588179
 21
10741.874663363949
 31
0.0
 12
-15852.434773535229
 22
10731.75914025398
 32
0.0
 13
-15852.434773535229
 23
10731.75914025398
 33
0.0
210
0.0
220
0.0
230
-1.0
  0
SOLID
  5
2A95
  8
0
  6
CONTINUOUS
 10
-14387.47494558819
 20
10741.874663363949
 30
0.0
 11
-14833.600111754869
 21
10731.75914025398
 31
0.0
 12
-14422.51511764114
 22
10731.75914025398
 32
0.0
 13
-14422.51511764114
 23
10731.75914025398
 33
0.0
210
0.0
220
0.0
230
-1.0
  0
SOLID
  5
2A96
  8
0
  6
CONTINUOUS
 10
-14387.47494558819
 20
10741.874663363949
 30
0.0
 11
-14825.321897684969
 21
10741.874663363949
 31
0.0
 12
-14833.600111754869
 22
10731.75914025398
 32
0.0
 13
-14833.600111754869
 23
10731.75914025398
 33
0.0
210
0.0
220
0.0
230
-1.0
  0
SOLID
  5
2A97
  8
0
  6
CONTINUOUS
 10
-15441.3497794215
 20
10731.75914025398
 30
0.0
 11
-15806.75567509075
 21
10718.572333543671
 31
0.0
 12
-15429.546574670519
 22
10718.572333543671
 32
0.0
 13
-15429.546574670519
 23
10718.572333543671
 33
0.0
210
0.0
220
0.0
230
-1.0
  0
SOLID
  5
2A98
  8
0
  6
CONTINUOUS
 10
-15441.3497794215
 20
10731.75914025398
 30
0.0
 11
-15852.434773535229
 21
10731.75914025398
 31
0.0
 12
-15806.75567509075
 22
10718.572333543671
 32
0.0
 13
-15806.75567509075
 23
10718.572333543671
 33
0.0
210
0.0
220
0.0
230
-1.0
  0
SOLID
  5
2A99
  8
0
  6
CONTINUOUS
 10
-14422.51511764114
 20
10731.75914025398
 30
0.0
 11
-14845.40331650585
 21
10718.572333543671
 31
0.0
 12
-14468.19421608562
 22
10718.572333543671
 32
0.0
 13
-14468.19421608562
 23
10718.572333543671
 33
0.0
210
0.0
220
0.0
230
-1.0
  0
SOLID
  5
2A9A
  8
0
  6
CONTINUOUS
 10
-14422.51511764114
 20
10731.75914025398
 30
0.0
 11
-14833.600111754869
 21
10731.75914025398
 31
0.0
 12
-14845.40331650585
 22
10718.572333543671
 32
0.0
 13
-14845.40331650585
 23
10718.572333543671
 33
0.0
210
0.0
220
0.0
230
-1.0
  0
SOLID
  5
2A9B
  8
0
  6
CONTINUOUS
 10
-15429.546574670519
 20
10718.572333543671
 30
0.0
 11
-15800.87494558819
 21
10716.874663363949
 31
0.0
 12
-15427.88605413038
 22
10716.874663363949
 32
0.0
 13
-15427.88605413038
 23
10716.874663363949
 33
0.0
210
0.0
220
0.0
230
-1.0
  0
SOLID
  5
2A9C
  8
0
  6
CONTINUOUS
 10
-15429.546574670519
 20
10718.572333543671
 30
0.0
 11
-15806.75567509075
 21
10718.572333543671
 31
0.0
 12
-15800.87494558819
 22
10716.874663363949
 32
0.0
 13
-15800.87494558819
 23
10716.874663363949
 33
0.0
210
0.0
220
0.0
230
-1.0
  0
SOLID
  5
2A9D
  8
0
  6
CONTINUOUS
 10
-14468.19421608562
 20
10718.572333543671
 30
0.0
 11
-14847.063837045989
 21
10716.874663363949
 31
0.0
 12
-14474.07494558818
 22
10716.874663363949
 32
0.0
 13
-14474.07494558818
 23
10716.874663363949
 33
0.0
210
0.0
220
0.0
230
-1.0
  0
SOLID
  5
2A9E
  8
0
  6
CONTINUOUS
 10
-14468.19421608562
 20
10718.572333543671
 30
0.0
 11
-14845.40331650585
 21
10718.572333543671
 31
0.0
 12
-14847.063837045989
 22
10716.874663363949
 32
0.0
 13
-14847.063837045989
 23
10716.874663363949
 33
0.0
210
0.0
220
0.0
230
-1.0
  0
SOLID
  5
2A9F
  8
0
  6
CONTINUOUS
 10
-15427.88605413038
 20
10716.874663363949
 30
0.0
 11
-15800.87494558819
 21
10705.92052897828
 31
0.0
 12
-15417.171625989909
 22
10705.92052897828
 32
0.0
 13
-15417.171625989909
 23
10705.92052897828
 33
0.0
210
0.0
220
0.0
230
-1.0
  0
SOLID
  5
2AA0
  8
0
  6
CONTINUOUS
 10
-15427.88605413038
 20
10716.874663363949
 30
0.0
 11
-15800.87494558819
 21
10716.874663363949
 31
0.0
 12
-15800.87494558819
 22
10705.92052897828
 32
0.0
 13
-15800.87494558819
 23
10705.92052897828
 33
0.0
210
0.0
220
0.0
230
-1.0
  0
SOLID
  5
2AA1
  8
0
  6
CONTINUOUS
 10
-14474.07494558818
 20
10716.874663363949
 30
0.0
 11
-14857.77826518646
 21
10705.92052897828
 31
0.0
 12
-14474.07494558818
 22
10705.92052897828
 32
0.0
 13
-14474.07494558818
 23
10705.92052897828
 33
0.0
210
0.0
220
0.0
230
-1.0
  0
SOLID
  5
2AA2
  8
0
  6
CONTINUOUS
 10
-14474.07494558818
 20
10716.874663363949
 30
0.0
 11
-14847.063837045989
 21
10716.874663363949
 31
0.0
 12
-14857.77826518646
 22
10705.92052897828
 32
0.0
 13
-14857.77826518646
 23
10705.92052897828
 33
0.0
210
0.0
220
0.0
230
-1.0
  0
SOLID
  5
2AA3
  8
0
  6
CONTINUOUS
 10
-15417.171625989909
 20
10705.92052897828
 30
0.0
 11
-15800.87494558819
 21
10693.82849305938
 31
0.0
 12
-15404.249157922841
 22
10693.82849305938
 32
0.0
 13
-15404.249157922841
 23
10693.82849305938
 33
0.0
210
0.0
220
0.0
230
-1.0
  0
SOLID
  5
2AA4
  8
0
  6
CONTINUOUS
 10
-15417.171625989909
 20
10705.92052897828
 30
0.0
 11
-15800.87494558819
 21
10705.92052897828
 31
0.0
 12
-15800.87494558819
 22
10693.82849305938
 32
0.0
 13
-15800.87494558819
 23
10693.82849305938
 33
0.0
210
0.0
220
0.0
230
-1.0
  0
SOLID
  5
2AA5
  8
0
  6
CONTINUOUS
 10
-14474.07494558818
 20
10705.92052897828
 30
0.0
 11
-14870.70073325353
 21
10693.82849305938
 31
0.0
 12
-14474.07494558818
 22
10693.82849305938
 32
0.0
 13
-14474.07494558818
 23
10693.82849305938
 33
0.0
210
0.0
220
0.0
230
-1.0
  0
SOLID
  5
2AA6
  8
0
  6
CONTINUOUS
 10
-14474.07494558818
 20
10705.92052897828
 30
0.0
 11
-14857.77826518646
 21
10705.92052897828
 31
0.0
 12
-14870.70073325353
 22
10693.82849305938
 32
0.0
 13
-14870.70073325353
 23
10693.82849305938
 33
0.0
210
0.0
220
0.0
230
-1.0
  0
SOLID
  5
2AA7
  8
0
  6
CONTINUOUS
 10
-15404.249157922841
 20
10693.82849305938
 30
0.0
 11
-15800.87494558819
 21
10682.31989651511
 31
0.0
 12
-15390.8044668074
 22
10682.31989651511
 32
0.0
 13
-15390.8044668074
 23
10682.31989651511
 33
0.0
210
0.0
220
0.0
230
-1.0
  0
SOLID
  5
2AA8
  8
0
  6
CONTINUOUS
 10
-15404.249157922841
 20
10693.82849305938
 30
0.0
 11
-15800.87494558819
 21
10693.82849305938
 31
0.0
 12
-15800.87494558819
 22
10682.31989651511
 32
0.0
 13
-15800.87494558819
 23
10682.31989651511
 33
0.0
210
0.0
220
0.0
230
-1.0
  0
SOLID
  5
2AA9
  8
0
  6
CONTINUOUS
 10
-14474.07494558818
 20
10693.82849305938
 30
0.0
 11
-14884.14542436897
 21
10682.31989651511
 31
0.0
 12
-14474.07494558818
 22
10682.31989651511
 32
0.0
 13
-14474.07494558818
 23
10682.31989651511
 33
0.0
210
0.0
220
0.0
230
-1.0
  0
SOLID
  5
2AAA
  8
0
  6
CONTINUOUS
 10
-14474.07494558818
 20
10693.82849305938
 30
0.0
 11
-14870.70073325353
 21
10693.82849305938
 31
0.0
 12
-14884.14542436897
 22
10682.31989651511
 32
0.0
 13
-14884.14542436897
 23
10682.31989651511
 33
0.0
210
0.0
220
0.0
230
-1.0
  0
SOLID
  5
2AAB
  8
0
  6
CONTINUOUS
 10
-15390.8044668074
 20
10682.31989651511
 30
0.0
 11
-15800.87494558819
 21
10671.41726796365
 31
0.0
 12
-15376.86387125781
 22
10671.41726796365
 32
0.0
 13
-15376.86387125781
 23
10671.41726796365
 33
0.0
210
0.0
220
0.0
230
-1.0
  0
SOLID
  5
2AAC
  8
0
  6
CONTINUOUS
 10
-15390.8044668074
 20
10682.31989651511
 30
0.0
 11
-15800.87494558819
 21
10682.31989651511
 31
0.0
 12
-15800.87494558819
 22
10671.41726796365
 32
0.0
 13
-15800.87494558819
 23
10671.41726796365
 33
0.0
210
0.0
220
0.0
230
-1.0
  0
SOLID
  5
2AAD
  8
0
  6
CONTINUOUS
 10
-14474.07494558818
 20
10682.31989651511
 30
0.0
 11
-14898.086019918561
 21
10671.41726796365
 31
0.0
 12
-14474.07494558818
 22
10671.41726796365
 32
0.0
 13
-14474.07494558818
 23
10671.41726796365
 33
0.0
210
0.0
220
0.0
230
-1.0
  0
SOLID
  5
2AAE
  8
0
  6
CONTINUOUS
 10
-14474.07494558818
 20
10682.31989651511
 30
0.0
 11
-14884.14542436897
 21
10682.31989651511
 31
0.0
 12
-14898.086019918561
 22
10671.41726796365
 32
0.0
 13
-14898.086019918561
 23
10671.41726796365
 33
0.0
210
0.0
220
0.0
230
-1.0
  0
SOLID
  5
2AAF
  8
0
  6
CONTINUOUS
 10
-15376.86387125781
 20
10671.41726796365
 30
0.0
 11
-15800.87494558819
 21
10666.874663363949
 31
0.0
 12
-15370.493718485261
 22
10666.874663363949
 32
0.0
 13
-15370.493718485261
 23
10666.874663363949
 33
0.0
210
0.0
220
0.0
230
-1.0
  0
SOLID
  5
2AB0
  8
0
  6
CONTINUOUS
 10
-15376.86387125781
 20
10671.41726796365
 30
0.0
 11
-15800.87494558819
 21
10671.41726796365
 31
0.0
 12
-15800.87494558819
 22
10666.874663363949
 32
0.0
 13
-15800.87494558819
 23
10666.874663363949
 33
0.0
210
0.0
220
0.0
230
-1.0
  0
SOLID
  5
2AB1
  8
0
  6
CONTINUOUS
 10
-14474.07494558818
 20
10671.41726796365
 30
0.0
 11
-14904.456172691111
 21
10666.874663363949
 31
0.0
 12
-14474.07494558818
 22
10666.874663363949
 32
0.0
 13
-14474.07494558818
 23
10666.874663363949
 33
0.0
210
0.0
220
0.0
230
-1.0
  0
SOLID
  5
2AB2
  8
0
  6
CONTINUOUS
 10
-14474.07494558818
 20
10671.41726796365
 30
0.0
 11
-14898.086019918561
 21
10671.41726796365
 31
0.0
 12
-14904.456172691111
 22
10666.874663363949
 32
0.0
 13
-14904.456172691111
 23
10666.874663363949
 33
0.0
210
0.0
220
0.0
230
-1.0
  0
SOLID
  5
2AB3
  8
0
  6
CONTINUOUS
 10
-15370.493718485261
 20
10666.874663363949
 30
0.0
 11
-15820.7330653308
 21
10661.141949812391
 31
0.0
 12
-15362.4546606445
 22
10661.141949812391
 32
0.0
 13
-15362.4546606445
 23
10661.141949812391
 33
0.0
210
0.0
220
0.0
230
-1.0
  0
SOLID
  5
2AB4
  8
0
  6
CONTINUOUS
 10
-15370.493718485261
 20
10666.874663363949
 30
0.0
 11
-15800.87494558819
 21
10666.874663363949
 31
0.0
 12
-15820.7330653308
 22
10661.141949812391
 32
0.0
 13
-15820.7330653308
 23
10661.141949812391
 33
0.0
210
0.0
220
0.0
230
-1.0
  0
SOLID
  5
2AB5
  8
0
  6
CONTINUOUS
 10
-14474.07494558818
 20
10666.874663363949
 30
0.0
 11
-14912.495230531869
 21
10661.141949812391
 31
0.0
 12
-14454.216825845569
 22
10661.141949812391
 32
0.0
 13
-14454.216825845569
 23
10661.141949812391
 33
0.0
210
0.0
220
0.0
230
-1.0
  0
SOLID
  5
2AB6
  8
0
  6
CONTINUOUS
 10
-14474.07494558818
 20
10666.874663363949
 30
0.0
 11
-14904.456172691111
 21
10666.874663363949
 31
0.0
 12
-14912.495230531869
 22
10661.141949812391
 32
0.0
 13
-14912.495230531869
 23
10661.141949812391
 33
0.0
210
0.0
220
0.0
230
-1.0
  0
SOLID
  5
2AB7
  8
0
  6
CONTINUOUS
 10
-15362.4546606445
 20
10661.141949812391
 30
0.0
 11
-15854.084087837209
 21
10651.514056479131
 31
0.0
 12
-15347.6050416739
 22
10651.514056479131
 32
0.0
 13
-15347.6050416739
 23
10651.514056479131
 33
0.0
210
0.0
220
0.0
230
-1.0
  0
SOLID
  5
2AB8
  8
0
  6
CONTINUOUS
 10
-15362.4546606445
 20
10661.141949812391
 30
0.0
 11
-15820.7330653308
 21
10661.141949812391
 31
0.0
 12
-15854.084087837209
 22
10651.514056479131
 32
0.0
 13
-15854.084087837209
 23
10651.514056479131
 33
0.0
210
0.0
220
0.0
230
-1.0
  0
SOLID
  5
2AB9
  8
0
  6
CONTINUOUS
 10
-14454.216825845569
 20
10661.141949812391
 30
0.0
 11
-14927.34484950247
 21
10651.514056479131
 31
0.0
 12
-14420.865803339149
 22
10651.514056479131
 32
0.0
 13
-14420.865803339149
 23
10651.514056479131
 33
0.0
210
0.0
220
0.0
230
-1.0
  0
SOLID
  5
2ABA
  8
0
  6
CONTINUOUS
 10
-14454.216825845569
 20
10661.141949812391
 30
0.0
 11
-14912.495230531869
 21
10661.141949812391
 31
0.0
 12
-14927.34484950247
 22
10651.514056479131
 32
0.0
 13
-14927.34484950247
 23
10651.514056479131
 33
0.0
210
0.0
220
0.0
230
-1.0
  0
SOLID
  5
2ABB
  8
0
  6
CONTINUOUS
 10
-15887.474945588179
 20
10741.874663363949
 30
0.0
 11
-16887.47494558819
 21
10642.552435017191
 31
0.0
 12
-15887.474945588179
 22
10642.552435017191
 32
0.0
 13
-15887.474945588179
 23
10642.552435017191
 33
0.0
210
0.0
220
0.0
230
-1.0
  0
SOLID
  5
2ABC
  8
0
  6
CONTINUOUS
 10
-15887.474945588179
 20
10741.874663363949
 30
0.0
 11
-16887.47494558819
 21
10741.874663363949
 31
0.0
 12
-16887.47494558819
 22
10642.552435017191
 32
0.0
 13
-16887.47494558819
 23
10642.552435017191
 33
0.0
210
0.0
220
0.0
230
-1.0
  0
SOLID
  5
2ABD
  8
0
  6
CONTINUOUS
 10
-15347.6050416739
 20
10651.514056479131
 30
0.0
 11
-15885.127144581351
 21
10642.552435017191
 31
0.0
 12
-15332.3440831725
 22
10642.552435017191
 32
0.0
 13
-15332.3440831725
 23
10642.552435017191
 33
0.0
210
0.0
220
0.0
230
-1.0
  0
SOLID
  5
2ABE
  8
0
  6
CONTINUOUS
 10
-15347.6050416739
 20
10651.514056479131
 30
0.0
 11
-15854.084087837209
 21
10651.514056479131
 31
0.0
 12
-15885.127144581351
 22
10642.552435017191
 32
0.0
 13
-15885.127144581351
 23
10642.552435017191
 33
0.0
210
0.0
220
0.0
230
-1.0
  0
SOLID
  5
2ABF
  8
0
  6
CONTINUOUS
 10
-14420.865803339149
 20
10651.514056479131
 30
0.0
 11
-14942.605808003869
 21
10642.552435017191
 31
0.0
 12
-14389.82274659502
 22
10642.552435017191
 32
0.0
 13
-14389.82274659502
 23
10642.552435017191
 33
0.0
210
0.0
220
0.0
230
-1.0
  0
SOLID
  5
2AC0
  8
0
  6
CONTINUOUS
 10
-14420.865803339149
 20
10651.514056479131
 30
0.0
 11
-14927.34484950247
 21
10651.514056479131
 31
0.0
 12
-14942.605808003869
 22
10642.552435017191
 32
0.0
 13
-14942.605808003869
 23
10642.552435017191
 33
0.0
210
0.0
220
0.0
230
-1.0
  0
SOLID
  5
2AC1
  8
0
  6
CONTINUOUS
 10
-15887.474945588179
 20
10642.552435017191
 30
0.0
 11
-16887.47494558819
 21
10641.874663363949
 31
0.0
 12
-15887.474945588179
 22
10641.874663363949
 32
0.0
 13
-15887.474945588179
 23
10641.874663363949
 33
0.0
210
0.0
220
0.0
230
-1.0
  0
SOLID
  5
2AC2
  8
0
  6
CONTINUOUS
 10
-15887.474945588179
 20
10642.552435017191
 30
0.0
 11
-16887.47494558819
 21
10642.552435017191
 31
0.0
 12
-16887.47494558819
 22
10641.874663363949
 32
0.0
 13
-16887.47494558819
 23
10641.874663363949
 33
0.0
210
0.0
220
0.0
230
-1.0
  0
SOLID
  5
2AC3
  8
0
  6
CONTINUOUS
 10
-15332.3440831725
 20
10642.552435017191
 30
0.0
 11
-15887.474945588179
 21
10641.874663363949
 31
0.0
 12
-15331.063310157429
 22
10641.874663363949
 32
0.0
 13
-15331.063310157429
 23
10641.874663363949
 33
0.0
210
0.0
220
0.0
230
-1.0
  0
SOLID
  5
2AC4
  8
0
  6
CONTINUOUS
 10
-15332.3440831725
 20
10642.552435017191
 30
0.0
 11
-15885.127144581351
 21
10642.552435017191
 31
0.0
 12
-15887.474945588179
 22
10641.874663363949
 32
0.0
 13
-15887.474945588179
 23
10641.874663363949
 33
0.0
210
0.0
220
0.0
230
-1.0
  0
SOLID
  5
2AC5
  8
0
  6
CONTINUOUS
 10
-14389.82274659502
 20
10642.552435017191
 30
0.0
 11
-14943.886581018931
 21
10641.874663363949
 31
0.0
 12
-14387.47494558819
 22
10641.874663363949
 32
0.0
 13
-14387.47494558819
 23
10641.874663363949
 33
0.0
210
0.0
220
0.0
230
-1.0
  0
SOLID
  5
2AC6
  8
0
  6
CONTINUOUS
 10
-14389.82274659502
 20
10642.552435017191
 30
0.0
 11
-14942.605808003869
 21
10642.552435017191
 31
0.0
 12
-14943.886581018931
 22
10641.874663363949
 32
0.0
 13
-14943.886581018931
 23
10641.874663363949
 33
0.0
210
0.0
220
0.0
230
-1.0
  0
SOLID
  5
2AC7
  8
0
  6
CONTINUOUS
 10
-13387.474945588179
 20
10741.874663363949
 30
0.0
 11
-14387.47494558819
 21
10641.874663363949
 31
0.0
 12
-13387.474945588179
 22
10641.874663363949
 32
0.0
 13
-13387.474945588179
 23
10641.874663363949
 33
0.0
210
0.0
220
0.0
230
-1.0
  0
SOLID
  5
2AC8
  8
0
  6
CONTINUOUS
 10
-13387.474945588179
 20
10741.874663363949
 30
0.0
 11
-14387.47494558819
 21
10741.874663363949
 31
0.0
 12
-14387.47494558819
 22
10641.874663363949
 32
0.0
 13
-14387.47494558819
 23
10641.874663363949
 33
0.0
210
0.0
220
0.0
230
-1.0
  0
SOLID
  5
2AC9
  8
0
  6
CONTINUOUS
 10
-15331.063310157429
 20
10641.874663363949
 30
0.0
 11
-16887.47494558819
 21
10634.274628221439
 31
0.0
 12
-15316.70165918322
 22
10634.274628221439
 32
0.0
 13
-15316.70165918322
 23
10634.274628221439
 33
0.0
210
0.0
220
0.0
230
-1.0
  0
SOLID
  5
2ACA
  8
0
  6
CONTINUOUS
 10
-15331.063310157429
 20
10641.874663363949
 30
0.0
 11
-16887.47494558819
 21
10641.874663363949
 31
0.0
 12
-16887.47494558819
 22
10634.274628221439
 32
0.0
 13
-16887.47494558819
 23
10634.274628221439
 33
0.0
210
0.0
220
0.0
230
-1.0
  0
SOLID
  5
2ACB
  8
0
  6
CONTINUOUS
 10
-13387.474945588179
 20
10641.874663363949
 30
0.0
 11
-14958.24823199315
 21
10634.274628221439
 31
0.0
 12
-13387.474945588179
 22
10634.274628221439
 32
0.0
 13
-13387.474945588179
 23
10634.274628221439
 33
0.0
210
0.0
220
0.0
230
-1.0
  0
SOLID
  5
2ACC
  8
0
  6
CONTINUOUS
 10
-13387.474945588179
 20
10641.874663363949
 30
0.0
 11
-14943.886581018931
 21
10641.874663363949
 31
0.0
 12
-14958.24823199315
 22
10634.274628221439
 32
0.0
 13
-14958.24823199315
 23
10634.274628221439
 33
0.0
210
0.0
220
0.0
230
-1.0
  0
SOLID
  5
2ACD
  8
0
  6
CONTINUOUS
 10
-15316.70165918322
 20
10634.274628221439
 30
0.0
 11
-16887.47494558819
 21
10626.69684028739
 31
0.0
 12
-15300.70839048557
 22
10626.69684028739
 32
0.0
 13
-15300.70839048557
 23
10626.69684028739
 33
0.0
210
0.0
220
0.0
230
-1.0
  0
SOLID
  5
2ACE
  8
0
  6
CONTINUOUS
 10
-15316.70165918322
 20
10634.274628221439
 30
0.0
 11
-16887.47494558819
 21
10634.274628221439
 31
0.0
 12
-16887.47494558819
 22
10626.69684028739
 32
0.0
 13
-16887.47494558819
 23
10626.69684028739
 33
0.0
210
0.0
220
0.0
230
-1.0
  0
SOLID
  5
2ACF
  8
0
  6
CONTINUOUS
 10
-13387.474945588179
 20
10634.274628221439
 30
0.0
 11
-14974.2415006908
 21
10626.69684028739
 31
0.0
 12
-13387.474945588179
 22
10626.69684028739
 32
0.0
 13
-13387.474945588179
 23
10626.69684028739
 33
0.0
210
0.0
220
0.0
230
-1.0
  0
SOLID
  5
2AD0
  8
0
  6
CONTINUOUS
 10
-13387.474945588179
 20
10634.274628221439
 30
0.0
 11
-14958.24823199315
 21
10634.274628221439
 31
0.0
 12
-14974.2415006908
 22
10626.69684028739
 32
0.0
 13
-14974.2415006908
 23
10626.69684028739
 33
0.0
210
0.0
220
0.0
230
-1.0
  0
SOLID
  5
2AD1
  8
0
  6
CONTINUOUS
 10
-15300.70839048557
 20
10626.69684028739
 30
0.0
 11
-16887.47494558819
 21
10619.833905090791
 31
0.0
 12
-15284.39558465409
 22
10619.833905090791
 32
0.0
 13
-15284.39558465409
 23
10619.833905090791
 33
0.0
210
0.0
220
0.0
230
-1.0
  0
SOLID
  5
2AD2
  8
0
  6
CONTINUOUS
 10
-15300.70839048557
 20
10626.69684028739
 30
0.0
 11
-16887.47494558819
 21
10626.69684028739
 31
0.0
 12
-16887.47494558819
 22
10619.833905090791
 32
0.0
 13
-16887.47494558819
 23
10619.833905090791
 33
0.0
210
0.0
220
0.0
230
-1.0
  0
SOLID
  5
2AD3
  8
0
  6
CONTINUOUS
 10
-13387.474945588179
 20
10626.69684028739
 30
0.0
 11
-14990.554306522279
 21
10619.833905090791
 31
0.0
 12
-13387.474945588179
 22
10619.833905090791
 32
0.0
 13
-13387.474945588179
 23
10619.833905090791
 33
0.0
210
0.0
220
0.0
230
-1.0
  0
SOLID
  5
2AD4
  8
0
  6
CONTINUOUS
 10
-13387.474945588179
 20
10626.69684028739
 30
0.0
 11
-14974.2415006908
 21
10626.69684028739
 31
0.0
 12
-14990.554306522279
 22
10619.833905090791
 32
0.0
 13
-14990.554306522279
 23
10619.833905090791
 33
0.0
210
0.0
220
0.0
230
-1.0
  0
SOLID
  5
2AD5
  8
0
  6
CONTINUOUS
 10
-15284.39558465409
 20
10619.833905090791
 30
0.0
 11
-16887.47494558819
 21
10613.699257149559
 31
0.0
 12
-15267.795174772231
 22
10613.699257149559
 32
0.0
 13
-15267.795174772231
 23
10613.699257149559
 33
0.0
210
0.0
220
0.0
230
-1.0
  0
SOLID
  5
2AD6
  8
0
  6
CONTINUOUS
 10
-15284.39558465409
 20
10619.833905090791
 30
0.0
 11
-16887.47494558819
 21
10619.833905090791
 31
0.0
 12
-16887.47494558819
 22
10613.699257149559
 32
0.0
 13
-16887.47494558819
 23
10613.699257149559
 33
0.0
210
0.0
220
0.0
230
-1.0
  0
SOLID
  5
2AD7
  8
0
  6
CONTINUOUS
 10
-13387.474945588179
 20
10619.833905090791
 30
0.0
 11
-15007.15471640414
 21
10613.699257149559
 31
0.0
 12
-13387.474945588179
 22
10613.699257149559
 32
0.0
 13
-13387.474945588179
 23
10613.699257149559
 33
0.0
210
0.0
220
0.0
230
-1.0
  0
SOLID
  5
2AD8
  8
0
  6
CONTINUOUS
 10
-13387.474945588179
 20
10619.833905090791
 30
0.0
 11
-14990.554306522279
 21
10619.833905090791
 31
0.0
 12
-15007.15471640414
 22
10613.699257149559
 32
0.0
 13
-15007.15471640414
 23
10613.699257149559
 33
0.0
210
0.0
220
0.0
230
-1.0
  0
SOLID
  5
2AD9
  8
0
  6
CONTINUOUS
 10
-15267.795174772231
 20
10613.699257149559
 30
0.0
 11
-16887.47494558819
 21
10608.30490532514
 31
0.0
 12
-15250.939656921901
 22
10608.30490532514
 32
0.0
 13
-15250.939656921901
 23
10608.30490532514
 33
0.0
210
0.0
220
0.0
230
-1.0
  0
SOLID
  5
2ADA
  8
0
  6
CONTINUOUS
 10
-15267.795174772231
 20
10613.699257149559
 30
0.0
 11
-16887.47494558819
 21
10613.699257149559
 31
0.0
 12
-16887.47494558819
 22
10608.30490532514
 32
0.0
 13
-16887.47494558819
 23
10608.30490532514
 33
0.0
210
0.0
220
0.0
230
-1.0
  0
SOLID
  5
2ADB
  8
0
  6
CONTINUOUS
 10
-13387.474945588179
 20
10613.699257149559
 30
0.0
 11
-15024.010234254471
 21
10608.30490532514
 31
0.0
 12
-13387.474945588179
 22
10608.30490532514
 32
0.0
 13
-13387.474945588179
 23
10608.30490532514
 33
0.0
210
0.0
220
0.0
230
-1.0
  0
SOLID
  5
2ADC
  8
0
  6
CONTINUOUS
 10
-13387.474945588179
 20
10613.699257149559
 30
0.0
 11
-15007.15471640414
 21
10613.699257149559
 31
0.0
 12
-15024.010234254471
 22
10608.30490532514
 32
0.0
 13
-15024.010234254471
 23
10608.30490532514
 33
0.0
210
0.0
220
0.0
230
-1.0
  0
SOLID
  5
2ADD
  8
0
  6
CONTINUOUS
 10
-15250.939656921901
 20
10608.30490532514
 30
0.0
 11
-16887.47494558819
 21
10603.66140931452
 31
0.0
 12
-15233.86202657083
 22
10603.66140931452
 32
0.0
 13
-15233.86202657083
 23
10603.66140931452
 33
0.0
210
0.0
220
0.0
230
-1.0
  0
SOLID
  5
2ADE
  8
0
  6
CONTINUOUS
 10
-15250.939656921901
 20
10608.30490532514
 30
0.0
 11
-16887.47494558819
 21
10608.30490532514
 31
0.0
 12
-16887.47494558819
 22
10603.66140931452
 32
0.0
 13
-16887.47494558819
 23
10603.66140931452
 33
0.0
210
0.0
220
0.0
230
-1.0
  0
SOLID
  5
2ADF
  8
0
  6
CONTINUOUS
 10
-13387.474945588179
 20
10608.30490532514
 30
0.0
 11
-15041.08786460555
 21
10603.66140931452
 31
0.0
 12
-13387.474945588179
 22
10603.66140931452
 32
0.0
 13
-13387.474945588179
 23
10603.66140931452
 33
0.0
210
0.0
220
0.0
230
-1.0
  0
SOLID
  5
2AE0
  8
0
  6
CONTINUOUS
 10
-13387.474945588179
 20
10608.30490532514
 30
0.0
 11
-15024.010234254471
 21
10608.30490532514
 31
0.0
 12
-15041.08786460555
 22
10603.66140931452
 32
0.0
 13
-15041.08786460555
 23
10603.66140931452
 33
0.0
210
0.0
220
0.0
230
-1.0
  0
SOLID
  5
2AE1
  8
0
  6
CONTINUOUS
 10
-15233.86202657083
 20
10603.66140931452
 30
0.0
 11
-16887.47494558819
 21
10599.777858979231
 31
0.0
 12
-15216.595713982389
 22
10599.777858979231
 32
0.0
 13
-15216.595713982389
 23
10599.777858979231
 33
0.0
210
0.0
220
0.0
230
-1.0
  0
SOLID
  5
2AE2
  8
0
  6
CONTINUOUS
 10
-15233.86202657083
 20
10603.66140931452
 30
0.0
 11
-16887.47494558819
 21
10603.66140931452
 31
0.0
 12
-16887.47494558819
 22
10599.777858979231
 32
0.0
 13
-16887.47494558819
 23
10599.777858979231
 33
0.0
210
0.0
220
0.0
230
-1.0
  0
SOLID
  5
2AE3
  8
0
  6
CONTINUOUS
 10
-13387.474945588179
 20
10603.66140931452
 30
0.0
 11
-15058.35417719398
 21
10599.777858979231
 31
0.0
 12
-13387.474945588179
 22
10599.777858979231
 32
0.0
 13
-13387.474945588179
 23
10599.777858979231
 33
0.0
210
0.0
220
0.0
230
-1.0
  0
SOLID
  5
2AE4
  8
0
  6
CONTINUOUS
 10
-13387.474945588179
 20
10603.66140931452
 30
0.0
 11
-15041.08786460555
 21
10603.66140931452
 31
0.0
 12
-15058.35417719398
 22
10599.777858979231
 32
0.0
 13
-15058.35417719398
 23
10599.777858979231
 33
0.0
210
0.0
220
0.0
230
-1.0
  0
SOLID
  5
2AE5
  8
0
  6
CONTINUOUS
 10
-15216.595713982389
 20
10599.777858979231
 30
0.0
 11
-16887.47494558819
 21
10596.661856551411
 31
0.0
 12
-15199.1745187743
 22
10596.661856551411
 32
0.0
 13
-15199.1745187743
 23
10596.661856551411
 33
0.0
210
0.0
220
0.0
230
-1.0
  0
SOLID
  5
2AE6
  8
0
  6
CONTINUOUS
 10
-15216.595713982389
 20
10599.777858979231
 30
0.0
 11
-16887.47494558819
 21
10599.777858979231
 31
0.0
 12
-16887.47494558819
 22
10596.661856551411
 32
0.0
 13
-16887.47494558819
 23
10596.661856551411
 33
0.0
210
0.0
220
0.0
230
-1.0
  0
SOLID
  5
2AE7
  8
0
  6
CONTINUOUS
 10
-13387.474945588179
 20
10599.777858979231
 30
0.0
 11
-15075.77537240206
 21
10596.661856551411
 31
0.0
 12
-13387.474945588179
 22
10596.661856551411
 32
0.0
 13
-13387.474945588179
 23
10596.661856551411
 33
0.0
210
0.0
220
0.0
230
-1.0
  0
SOLID
  5
2AE8
  8
0
  6
CONTINUOUS
 10
-13387.474945588179
 20
10599.777858979231
 30
0.0
 11
-15058.35417719398
 21
10599.777858979231
 31
0.0
 12
-15075.77537240206
 22
10596.661856551411
 32
0.0
 13
-15075.77537240206
 23
10596.661856551411
 33
0.0
210
0.0
220
0.0
230
-1.0
  0
SOLID
  5
2AE9
  8
0
  6
CONTINUOUS
 10
-15199.1745187743
 20
10596.661856551411
 30
0.0
 11
-16887.47494558819
 21
10594.31950175213
 31
0.0
 12
-15181.632543754289
 22
10594.31950175213
 32
0.0
 13
-15181.632543754289
 23
10594.31950175213
 33
0.0
210
0.0
220
0.0
230
-1.0
  0
SOLID
  5
2AEA
  8
0
  6
CONTINUOUS
 10
-15199.1745187743
 20
10596.661856551411
 30
0.0
 11
-16887.47494558819
 21
10596.661856551411
 31
0.0
 12
-16887.47494558819
 22
10594.31950175213
 32
0.0
 13
-16887.47494558819
 23
10594.31950175213
 33
0.0
210
0.0
220
0.0
230
-1.0
  0
SOLID
  5
2AEB
  8
0
  6
CONTINUOUS
 10
-13387.474945588179
 20
10596.661856551411
 30
0.0
 11
-15093.317347422089
 21
10594.31950175213
 31
0.0
 12
-13387.474945588179
 22
10594.31950175213
 32
0.0
 13
-13387.474945588179
 23
10594.31950175213
 33
0.0
210
0.0
220
0.0
230
-1.0
  0
SOLID
  5
2AEC
  8
0
  6
CONTINUOUS
 10
-13387.474945588179
 20
10596.661856551411
 30
0.0
 11
-15075.77537240206
 21
10596.661856551411
 31
0.0
 12
-15093.317347422089
 22
10594.31950175213
 32
0.0
 13
-15093.317347422089
 23
10594.31950175213
 33
0.0
210
0.0
220
0.0
230
-1.0
  0
SOLID
  5
2AED
  8
0
  6
CONTINUOUS
 10
-15181.632543754289
 20
10594.31950175213
 30
0.0
 11
-16887.47494558819
 21
10592.75537985092
 31
0.0
 12
-15164.004128162231
 22
10592.75537985092
 32
0.0
 13
-15164.004128162231
 23
10592.75537985092
 33
0.0
210
0.0
220
0.0
230
-1.0
  0
SOLID
  5
2AEE
  8
0
  6
CONTINUOUS
 10
-15181.632543754289
 20
10594.31950175213
 30
0.0
 11
-16887.47494558819
 21
10594.31950175213
 31
0.0
 12
-16887.47494558819
 22
10592.75537985092
 32
0.0
 13
-16887.47494558819
 23
10592.75537985092
 33
0.0
210
0.0
220
0.0
230
-1.0
  0
SOLID
  5
2AEF
  8
0
  6
CONTINUOUS
 10
-13387.474945588179
 20
10594.31950175213
 30
0.0
 11
-15110.945763014141
 21
10592.75537985092
 31
0.0
 12
-13387.474945588179
 22
10592.75537985092
 32
0.0
 13
-13387.474945588179
 23
10592.75537985092
 33
0.0
210
0.0
220
0.0
230
-1.0
  0
SOLID
  5
2AF0
  8
0
  6
CONTINUOUS
 10
-13387.474945588179
 20
10594.31950175213
 30
0.0
 11
-15093.3173474221
 21
10594.31950175213
 31
0.0
 12
-15110.945763014141
 22
10592.75537985092
 32
0.0
 13
-15110.945763014141
 23
10592.75537985092
 33
0.0
210
0.0
220
0.0
230
-1.0
  0
SOLID
  5
2AF1
  8
0
  6
CONTINUOUS
 10
-15164.004128162231
 20
10592.75537985092
 30
0.0
 11
-16887.47494558819
 21
10591.972552689849
 31
0.0
 12
-15146.32378044946
 22
10591.972552689849
 32
0.0
 13
-15146.32378044946
 23
10591.972552689849
 33
0.0
210
0.0
220
0.0
230
-1.0
  0
SOLID
  5
2AF2
  8
0
  6
CONTINUOUS
 10
-15164.004128162231
 20
10592.75537985092
 30
0.0
 11
-16887.47494558819
 21
10592.75537985092
 31
0.0
 12
-16887.47494558819
 22
10591.972552689849
 32
0.0
 13
-16887.47494558819
 23
10591.972552689849
 33
0.0
210
0.0
220
0.0
230
-1.0
  0
SOLID
  5
2AF3
  8
0
  6
CONTINUOUS
 10
-13387.474945588179
 20
10592.75537985092
 30
0.0
 11
-15128.626110726909
 21
10591.972552689849
 31
0.0
 12
-13387.474945588179
 22
10591.972552689849
 32
0.0
 13
-13387.474945588179
 23
10591.972552689849
 33
0.0
210
0.0
220
0.0
230
-1.0
  0
SOLID
  5
2AF4
  8
0
  6
CONTINUOUS
 10
-13387.474945588179
 20
10592.75537985092
 30
0.0
 11
-15110.945763014141
 21
10592.75537985092
 31
0.0
 12
-15128.626110726909
 22
10591.972552689849
 32
0.0
 13
-15128.626110726909
 23
10591.972552689849
 33
0.0
210
0.0
220
0.0
230
-1.0
  0
SOLID
  5
2AF5
  8
0
  6
CONTINUOUS
 10
-13387.474945588179
 20
10591.972552689849
 30
0.0
 11
-16887.47494558819
 21
10541.874663363949
 31
0.0
 12
-13387.474945588179
 22
10541.874663363949
 32
0.0
 13
-13387.474945588179
 23
10541.874663363949
 33
0.0
210
0.0
220
0.0
230
-1.0
  0
SOLID
  5
2AF6
  8
0
  6
CONTINUOUS
 10
-13387.474945588179
 20
10591.972552689849
 30
0.0
 11
-16887.47494558819
 21
10591.972552689849
 31
0.0
 12
-16887.47494558819
 22
10541.874663363949
 32
0.0
 13
-16887.47494558819
 23
10541.874663363949
 33
0.0
210
0.0
220
0.0
230
-1.0
  0
SOLID
  5
2AF7
  8
0
  6
CONTINUOUS
 10
-14387.47494558819
 20
10541.874663363949
 30
0.0
 11
-15800.87494558819
 21
10516.874663363949
 31
0.0
 12
-14474.07494558818
 22
10516.874663363949
 32
0.0
 13
-14474.07494558818
 23
10516.874663363949
 33
0.0
210
0.0
220
0.0
230
-1.0
  0
SOLID
  5
2AF8
  8
0
  6
CONTINUOUS
 10
-14387.47494558819
 20
10541.874663363949
 30
0.0
 11
-15887.474945588179
 21
10541.874663363949
 31
0.0
 12
-15800.87494558819
 22
10516.874663363949
 32
0.0
 13
-15800.87494558819
 23
10516.874663363949
 33
0.0
210
0.0
220
0.0
230
-1.0
  0
SOLID
  5
2AF9
  8
0
  6
CONTINUOUS
 10
-15887.474945588179
 20
10541.874663363949
 30
0.0
 11
-16887.47494558819
 21
10466.874663363949
 31
0.0
 12
-15887.474945588179
 22
10466.874663363949
 32
0.0
 13
-15887.474945588179
 23
10466.874663363949
 33
0.0
210
0.0
220
0.0
230
-1.0
  0
SOLID
  5
2AFA
  8
0
  6
CONTINUOUS
 10
-15887.474945588179
 20
10541.874663363949
 30
0.0
 11
-16887.47494558819
 21
10541.874663363949
 31
0.0
 12
-16887.47494558819
 22
10466.874663363949
 32
0.0
 13
-16887.47494558819
 23
10466.874663363949
 33
0.0
210
0.0
220
0.0
230
-1.0
  0
SOLID
  5
2AFB
  8
0
  6
CONTINUOUS
 10
-14474.07494558818
 20
10516.874663363949
 30
0.0
 11
-15800.87494558819
 21
10466.874663363949
 31
0.0
 12
-14474.07494558818
 22
10466.874663363949
 32
0.0
 13
-14474.07494558818
 23
10466.874663363949
 33
0.0
210
0.0
220
0.0
230
-1.0
  0
SOLID
  5
2AFC
  8
0
  6
CONTINUOUS
 10
-14474.07494558818
 20
10516.874663363949
 30
0.0
 11
-15800.87494558819
 21
10516.874663363949
 31
0.0
 12
-15800.87494558819
 22
10466.874663363949
 32
0.0
 13
-15800.87494558819
 23
10466.874663363949
 33
0.0
210
0.0
220
0.0
230
-1.0
  0
SOLID
  5
2AFD
  8
0
  6
CONTINUOUS
 10
-15887.474945588179
 20
10466.874663363949
 30
0.0
 11
-16887.47494558819
 21
10441.874663363949
 31
0.0
 12
-15887.474945588179
 22
10441.874663363949
 32
0.0
 13
-15887.474945588179
 23
10441.874663363949
 33
0.0
210
0.0
220
0.0
230
-1.0
  0
SOLID
  5
2AFE
  8
0
  6
CONTINUOUS
 10
-15887.474945588179
 20
10466.874663363949
 30
0.0
 11
-16887.47494558819
 21
10466.874663363949
 31
0.0
 12
-16887.47494558819
 22
10441.874663363949
 32
0.0
 13
-16887.47494558819
 23
10441.874663363949
 33
0.0
210
0.0
220
0.0
230
-1.0
  0
SOLID
  5
2AFF
  8
0
  6
CONTINUOUS
 10
-14474.07494558818
 20
10466.874663363949
 30
0.0
 11
-15887.474945588179
 21
10441.874663363949
 31
0.0
 12
-14387.47494558819
 22
10441.874663363949
 32
0.0
 13
-14387.47494558819
 23
10441.874663363949
 33
0.0
210
0.0
220
0.0
230
-1.0
  0
SOLID
  5
2B00
  8
0
  6
CONTINUOUS
 10
-14474.07494558818
 20
10466.874663363949
 30
0.0
 11
-15800.87494558819
 21
10466.874663363949
 31
0.0
 12
-15887.474945588179
 22
10441.874663363949
 32
0.0
 13
-15887.474945588179
 23
10441.874663363949
 33
0.0
210
0.0
220
0.0
230
-1.0
  0
SOLID
  5
2B01
  8
0
  6
CONTINUOUS
 10
-13387.474945588179
 20
10541.874663363949
 30
0.0
 11
-14387.47494558819
 21
10441.874663363949
 31
0.0
 12
-13387.474945588179
 22
10441.874663363949
 32
0.0
 13
-13387.474945588179
 23
10441.874663363949
 33
0.0
210
0.0
220
0.0
230
-1.0
  0
SOLID
  5
2B02
  8
0
  6
CONTINUOUS
 10
-13387.474945588179
 20
10541.874663363949
 30
0.0
 11
-14387.47494558819
 21
10541.874663363949
 31
0.0
 12
-14387.47494558819
 22
10441.874663363949
 32
0.0
 13
-14387.47494558819
 23
10441.874663363949
 33
0.0
210
0.0
220
0.0
230
-1.0
  0
SOLID
  5
2B03
  8
0
  6
CONTINUOUS
 10
-13387.474945588179
 20
10441.874663363949
 30
0.0
 11
-16887.47494558819
 21
10341.874663363949
 31
0.0
 12
-13387.474945588179
 22
10341.874663363949
 32
0.0
 13
-13387.474945588179
 23
10341.874663363949
 33
0.0
210
0.0
220
0.0
230
-1.0
  0
SOLID
  5
2B04
  8
0
  6
CONTINUOUS
 10
-13387.474945588179
 20
10441.874663363949
 30
0.0
 11
-16887.47494558819
 21
10441.874663363949
 31
0.0
 12
-16887.47494558819
 22
10341.874663363949
 32
0.0
 13
-16887.47494558819
 23
10341.874663363949
 33
0.0
210
0.0
220
0.0
230
-1.0
  0
SOLID
  5
2B05
  8
0
  6
CONTINUOUS
 10
-14387.47494558819
 20
10341.874663363949
 30
0.0
 11
-15800.87494558819
 21
10316.874663363949
 31
0.0
 12
-14474.07494558818
 22
10316.874663363949
 32
0.0
 13
-14474.07494558818
 23
10316.874663363949
 33
0.0
210
0.0
220
0.0
230
-1.0
  0
SOLID
  5
2B06
  8
0
  6
CONTINUOUS
 10
-14387.47494558819
 20
10341.874663363949
 30
0.0
 11
-15887.474945588179
 21
10341.874663363949
 31
0.0
 12
-15800.87494558819
 22
10316.874663363949
 32
0.0
 13
-15800.87494558819
 23
10316.874663363949
 33
0.0
210
0.0
220
0.0
230
-1.0
  0
SOLID
  5
2B07
  8
0
  6
CONTINUOUS
 10
-15887.474945588179
 20
10341.874663363949
 30
0.0
 11
-16887.47494558819
 21
10266.874663363949
 31
0.0
 12
-15887.474945588179
 22
10266.874663363949
 32
0.0
 13
-15887.474945588179
 23
10266.874663363949
 33
0.0
210
0.0
220
0.0
230
-1.0
  0
SOLID
  5
2B08
  8
0
  6
CONTINUOUS
 10
-15887.474945588179
 20
10341.874663363949
 30
0.0
 11
-16887.47494558819
 21
10341.874663363949
 31
0.0
 12
-16887.47494558819
 22
10266.874663363949
 32
0.0
 13
-16887.47494558819
 23
10266.874663363949
 33
0.0
210
0.0
220
0.0
230
-1.0
  0
SOLID
  5
2B09
  8
0
  6
CONTINUOUS
 10
-14474.07494558818
 20
10316.874663363949
 30
0.0
 11
-15800.87494558819
 21
10266.874663363949
 31
0.0
 12
-14474.07494558818
 22
10266.874663363949
 32
0.0
 13
-14474.07494558818
 23
10266.874663363949
 33
0.0
210
0.0
220
0.0
230
-1.0
  0
SOLID
  5
2B0A
  8
0
  6
CONTINUOUS
 10
-14474.07494558818
 20
10316.874663363949
 30
0.0
 11
-15800.87494558819
 21
10316.874663363949
 31
0.0
 12
-15800.87494558819
 22
10266.874663363949
 32
0.0
 13
-15800.87494558819
 23
10266.874663363949
 33
0.0
210
0.0
220
0.0
230
-1.0
  0
SOLID
  5
2B0B
  8
0
  6
CONTINUOUS
 10
-15887.474945588179
 20
10266.874663363949
 30
0.0
 11
-16887.47494558819
 21
10241.874663363949
 31
0.0
 12
-15887.474945588179
 22
10241.874663363949
 32
0.0
 13
-15887.474945588179
 23
10241.874663363949
 33
0.0
210
0.0
220
0.0
230
-1.0
  0
SOLID
  5
2B0C
  8
0
  6
CONTINUOUS
 10
-15887.474945588179
 20
10266.874663363949
 30
0.0
 11
-16887.47494558819
 21
10266.874663363949
 31
0.0
 12
-16887.47494558819
 22
10241.874663363949
 32
0.0
 13
-16887.47494558819
 23
10241.874663363949
 33
0.0
210
0.0
220
0.0
230
-1.0
  0
SOLID
  5
2B0D
  8
0
  6
CONTINUOUS
 10
-14474.07494558818
 20
10266.874663363949
 30
0.0
 11
-15887.474945588179
 21
10241.874663363949
 31
0.0
 12
-14387.47494558819
 22
10241.874663363949
 32
0.0
 13
-14387.47494558819
 23
10241.874663363949
 33
0.0
210
0.0
220
0.0
230
-1.0
  0
SOLID
  5
2B0E
  8
0
  6
CONTINUOUS
 10
-14474.07494558818
 20
10266.874663363949
 30
0.0
 11
-15800.87494558819
 21
10266.874663363949
 31
0.0
 12
-15887.474945588179
 22
10241.874663363949
 32
0.0
 13
-15887.474945588179
 23
10241.874663363949
 33
0.0
210
0.0
220
0.0
230
-1.0
  0
SOLID
  5
2B0F
  8
0
  6
CONTINUOUS
 10
-13387.474945588179
 20
10341.874663363949
 30
0.0
 11
-14387.47494558819
 21
10241.874663363949
 31
0.0
 12
-13387.474945588179
 22
10241.874663363949
 32
0.0
 13
-13387.474945588179
 23
10241.874663363949
 33
0.0
210
0.0
220
0.0
230
-1.0
  0
SOLID
  5
2B10
  8
0
  6
CONTINUOUS
 10
-13387.474945588179
 20
10341.874663363949
 30
0.0
 11
-14387.47494558819
 21
10341.874663363949
 31
0.0
 12
-14387.47494558819
 22
10241.874663363949
 32
0.0
 13
-14387.47494558819
 23
10241.874663363949
 33
0.0
210
0.0
220
0.0
230
-1.0
  0
SOLID
  5
2B11
  8
0
  6
CONTINUOUS
 10
-13387.474945588179
 20
10241.874663363949
 30
0.0
 11
-16887.47494558819
 21
10141.874663363949
 31
0.0
 12
-13387.474945588179
 22
10141.874663363949
 32
0.0
 13
-13387.474945588179
 23
10141.874663363949
 33
0.0
210
0.0
220
0.0
230
-1.0
  0
SOLID
  5
2B12
  8
0
  6
CONTINUOUS
 10
-13387.474945588179
 20
10241.874663363949
 30
0.0
 11
-16887.47494558819
 21
10241.874663363949
 31
0.0
 12
-16887.47494558819
 22
10141.874663363949
 32
0.0
 13
-16887.47494558819
 23
10141.874663363949
 33
0.0
210
0.0
220
0.0
230
-1.0
  0
SOLID
  5
2B13
  8
0
  6
CONTINUOUS
 10
-14387.47494558819
 20
10141.874663363949
 30
0.0
 11
-15800.87494558819
 21
10116.874663363949
 31
0.0
 12
-14474.07494558818
 22
10116.874663363949
 32
0.0
 13
-14474.07494558818
 23
10116.874663363949
 33
0.0
210
0.0
220
0.0
230
-1.0
  0
SOLID
  5
2B14
  8
0
  6
CONTINUOUS
 10
-14387.47494558819
 20
10141.874663363949
 30
0.0
 11
-15887.474945588179
 21
10141.874663363949
 31
0.0
 12
-15800.87494558819
 22
10116.874663363949
 32
0.0
 13
-15800.87494558819
 23
10116.874663363949
 33
0.0
210
0.0
220
0.0
230
-1.0
  0
SOLID
  5
2B15
  8
0
  6
CONTINUOUS
 10
-13387.474945588179
 20
10141.874663363949
 30
0.0
 11
-14387.47494558819
 21
10116.874663363949
 31
0.0
 12
-13387.474945588179
 22
10116.874663363949
 32
0.0
 13
-13387.474945588179
 23
10116.874663363949
 33
0.0
210
0.0
220
0.0
230
-1.0
  0
SOLID
  5
2B16
  8
0
  6
CONTINUOUS
 10
-13387.474945588179
 20
10141.874663363949
 30
0.0
 11
-14387.47494558819
 21
10141.874663363949
 31
0.0
 12
-14387.47494558819
 22
10116.874663363949
 32
0.0
 13
-14387.47494558819
 23
10116.874663363949
 33
0.0
210
0.0
220
0.0
230
-1.0
  0
SOLID
  5
2B17
  8
0
  6
CONTINUOUS
 10
-15887.474945588179
 20
10141.874663363949
 30
0.0
 11
-16887.47494558819
 21
9141.874663363953
 31
0.0
 12
-15887.474945588179
 22
9141.874663363953
 32
0.0
 13
-15887.474945588179
 23
9141.874663363953
 33
0.0
210
0.0
220
0.0
230
-1.0
  0
SOLID
  5
2B18
  8
0
  6
CONTINUOUS
 10
-15887.474945588179
 20
10141.874663363949
 30
0.0
 11
-16887.47494558819
 21
10141.874663363949
 31
0.0
 12
-16887.47494558819
 22
9141.874663363953
 32
0.0
 13
-16887.47494558819
 23
9141.874663363953
 33
0.0
210
0.0
220
0.0
230
-1.0
  0
SOLID
  5
2B19
  8
0
  6
CONTINUOUS
 10
-13387.474945588179
 20
10116.874663363949
 30
0.0
 11
-14387.47494558819
 21
9141.874663363953
 31
0.0
 12
-13387.474945588179
 22
9141.874663363953
 32
0.0
 13
-13387.474945588179
 23
9141.874663363953
 33
0.0
210
0.0
220
0.0
230
-1.0
  0
SOLID
  5
2B1A
  8
0
  6
CONTINUOUS
 10
-13387.474945588179
 20
10116.874663363949
 30
0.0
 11
-14387.47494558819
 21
10116.874663363949
 31
0.0
 12
-14387.47494558819
 22
9141.874663363953
 32
0.0
 13
-14387.47494558819
 23
9141.874663363953
 33
0.0
210
0.0
220
0.0
230
-1.0
  0
SOLID
  5
2B1B
  8
0
  6
CONTINUOUS
 10
-14474.07494558818
 20
10116.874663363949
 30
0.0
 11
-15800.87494558819
 21
7308.5536732846376
 31
0.0
 12
-14474.07494558818
 22
7308.5536732846376
 32
0.0
 13
-14474.07494558818
 23
7308.5536732846376
 33
0.0
210
0.0
220
0.0
230
-1.0
  0
SOLID
  5
2B1C
  8
0
  6
CONTINUOUS
 10
-14474.07494558818
 20
10116.874663363949
 30
0.0
 11
-15800.87494558819
 21
10116.874663363949
 31
0.0
 12
-15800.87494558819
 22
7308.5536732846376
 32
0.0
 13
-15800.87494558819
 23
7308.5536732846376
 33
0.0
210
0.0
220
0.0
230
-1.0
  0
SOLID
  5
2B1D
  8
0
  6
CONTINUOUS
 10
-15887.474945588179
 20
9141.874663363953
 30
0.0
 11
-23251.435976267101
 21
2777.9136326850139
 31
0.0
 12
-22251.435976267101
 22
2777.9136326850139
 32
0.0
 13
-22251.435976267101
 23
2777.9136326850139
 33
0.0
210
0.0
220
0.0
230
-1.0
  0
SOLID
  5
2B1E
  8
0
  6
CONTINUOUS
 10
-15887.474945588179
 20
9141.874663363953
 30
0.0
 11
-16887.47494558819
 21
9141.874663363953
 31
0.0
 12
-23251.435976267101
 22
2777.9136326850139
 32
0.0
 13
-23251.435976267101
 23
2777.9136326850139
 33
0.0
210
0.0
220
0.0
230
-1.0
  0
SOLID
  5
2B1F
  8
0
  6
CONTINUOUS
 10
-13387.474945588179
 20
9141.874663363953
 30
0.0
 11
-8023.5139149092574
 21
2777.9136326850139
 31
0.0
 12
-7023.5139149092583
 22
2777.9136326850139
 32
0.0
 13
-7023.5139149092583
 23
2777.9136326850139
 33
0.0
210
0.0
220
0.0
230
-1.0
  0
SOLID
  5
2B20
  8
0
  6
CONTINUOUS
 10
-13387.474945588179
 20
9141.874663363953
 30
0.0
 11
-14387.47494558819
 21
9141.874663363953
 31
0.0
 12
-8023.5139149092574
 22
2777.9136326850139
 32
0.0
 13
-8023.5139149092574
 23
2777.9136326850139
 33
0.0
210
0.0
220
0.0
230
-1.0
  0
LINE
  5
2B21
  8
0
  6
CONTINUOUS
 10
14474.07494558818
 20
14676.874663363949
 30
0.0
 11
15800.87494558819
 21
14675.195653443259
 31
0.0
  0
LINE
  5
2B22
  8
0
  6
CONTINUOUS
 10
14474.07494558818
 20
14675.195653443259
 30
0.0
 11
14474.07494558818
 21
14676.874663363949
 31
0.0
  0
LINE
  5
2B23
  8
0
  6
CONTINUOUS
 10
15887.474945588179
 20
12841.874663363949
 30
0.0
 11
22251.435976267101
 21
19205.835694042878
 31
0.0
  0
LINE
  5
2B24
  8
0
  6
CONTINUOUS
 10
23251.435976267101
 20
19205.835694042878
 30
0.0
 11
16887.47494558819
 21
12841.874663363949
 31
0.0
  0
LINE
  5
2B25
  8
0
  6
CONTINUOUS
 10
13387.474945588179
 20
12841.874663363949
 30
0.0
 11
7023.5139149092647
 21
19205.835694042878
 31
0.0
  0
LINE
  5
2B26
  8
0
  6
CONTINUOUS
 10
8023.5139149092638
 20
19205.835694042878
 30
0.0
 11
14387.47494558819
 21
12841.874663363949
 31
0.0
  0
LINE
  5
2B27
  8
0
  6
CONTINUOUS
 10
15887.474945588179
 20
11866.874663363949
 30
0.0
 11
15887.474945588179
 21
12841.874663363949
 31
0.0
  0
LINE
  5
2B28
  8
0
  6
CONTINUOUS
 10
16887.47494558819
 20
12841.874663363949
 30
0.0
 11
16887.47494558819
 21
11866.874663363949
 31
0.0
  0
LINE
  5
2B29
  8
0
  6
CONTINUOUS
 10
14474.07494558818
 20
11866.874663363949
 30
0.0
 11
14474.07494558818
 21
14675.195653443259
 31
0.0
  0
LINE
  5
2B2A
  8
0
  6
CONTINUOUS
 10
15800.87494558819
 20
14675.195653443259
 30
0.0
 11
15800.87494558819
 21
11866.874663363949
 31
0.0
  0
LINE
  5
2B2B
  8
0
  6
CONTINUOUS
 10
13387.474945588179
 20
11866.874663363949
 30
0.0
 11
13387.474945588179
 21
12841.874663363949
 31
0.0
  0
LINE
  5
2B2C
  8
0
  6
CONTINUOUS
 10
14387.47494558819
 20
12841.874663363949
 30
0.0
 11
14387.47494558819
 21
11866.874663363949
 31
0.0
  0
LINE
  5
2B2D
  8
0
  6
CONTINUOUS
 10
16887.47494558819
 20
11866.874663363949
 30
0.0
 11
16887.47494558819
 21
11841.874663363949
 31
0.0
  0
LINE
  5
2B2E
  8
0
  6
CONTINUOUS
 10
13387.474945588179
 20
11841.874663363949
 30
0.0
 11
13387.474945588179
 21
11866.874663363949
 31
0.0
  0
LINE
  5
2B2F
  8
0
  6
CONTINUOUS
 10
13387.474945588179
 20
11741.874663363949
 30
0.0
 11
13387.474945588179
 21
11841.874663363949
 31
0.0
  0
LINE
  5
2B30
  8
0
  6
CONTINUOUS
 10
16887.47494558819
 20
11841.874663363949
 30
0.0
 11
16887.47494558819
 21
11741.874663363949
 31
0.0
  0
LINE
  5
2B31
  8
0
  6
CONTINUOUS
 10
14474.07494558818
 20
11716.874663363949
 30
0.0
 11
14387.47494558819
 21
11741.874663363949
 31
0.0
  0
LINE
  5
2B32
  8
0
  6
CONTINUOUS
 10
15887.474945588179
 20
11741.874663363949
 30
0.0
 11
15800.87494558819
 21
11716.874663363949
 31
0.0
  0
LINE
  5
2B33
  8
0
  6
CONTINUOUS
 10
15887.474945588179
 20
11666.874663363949
 30
0.0
 11
15887.474945588179
 21
11741.874663363949
 31
0.0
  0
LINE
  5
2B34
  8
0
  6
CONTINUOUS
 10
16887.47494558819
 20
11741.874663363949
 30
0.0
 11
16887.47494558819
 21
11666.874663363949
 31
0.0
  0
LINE
  5
2B35
  8
0
  6
CONTINUOUS
 10
14474.07494558818
 20
11666.874663363949
 30
0.0
 11
14474.07494558818
 21
11716.874663363949
 31
0.0
  0
LINE
  5
2B36
  8
0
  6
CONTINUOUS
 10
15800.87494558819
 20
11716.874663363949
 30
0.0
 11
15800.87494558819
 21
11666.874663363949
 31
0.0
  0
LINE
  5
2B37
  8
0
  6
CONTINUOUS
 10
16887.47494558819
 20
11666.874663363949
 30
0.0
 11
16887.47494558819
 21
11641.874663363949
 31
0.0
  0
LINE
  5
2B38
  8
0
  6
CONTINUOUS
 10
14387.47494558819
 20
11641.874663363949
 30
0.0
 11
14474.07494558818
 21
11666.874663363949
 31
0.0
  0
LINE
  5
2B39
  8
0
  6
CONTINUOUS
 10
13387.474945588179
 20
11641.874663363949
 30
0.0
 11
13387.474945588179
 21
11741.874663363949
 31
0.0
  0
LINE
  5
2B3A
  8
0
  6
CONTINUOUS
 10
14387.47494558819
 20
11741.874663363949
 30
0.0
 11
14387.47494558819
 21
11641.874663363949
 31
0.0
  0
LINE
  5
2B3B
  8
0
  6
CONTINUOUS
 10
13387.474945588179
 20
11541.874663363949
 30
0.0
 11
13387.474945588179
 21
11641.874663363949
 31
0.0
  0
LINE
  5
2B3C
  8
0
  6
CONTINUOUS
 10
16887.47494558819
 20
11641.874663363949
 30
0.0
 11
16887.47494558819
 21
11541.874663363949
 31
0.0
  0
LINE
  5
2B3D
  8
0
  6
CONTINUOUS
 10
14474.07494558818
 20
11516.874663363949
 30
0.0
 11
14387.47494558819
 21
11541.874663363949
 31
0.0
  0
LINE
  5
2B3E
  8
0
  6
CONTINUOUS
 10
15887.474945588179
 20
11541.874663363949
 30
0.0
 11
15800.87494558819
 21
11516.874663363949
 31
0.0
  0
LINE
  5
2B3F
  8
0
  6
CONTINUOUS
 10
15887.474945588179
 20
11466.874663363949
 30
0.0
 11
15887.474945588179
 21
11541.874663363949
 31
0.0
  0
LINE
  5
2B40
  8
0
  6
CONTINUOUS
 10
16887.47494558819
 20
11541.874663363949
 30
0.0
 11
16887.47494558819
 21
11466.874663363949
 31
0.0
  0
LINE
  5
2B41
  8
0
  6
CONTINUOUS
 10
14474.07494558818
 20
11466.874663363949
 30
0.0
 11
14474.07494558818
 21
11516.874663363949
 31
0.0
  0
LINE
  5
2B42
  8
0
  6
CONTINUOUS
 10
15800.87494558819
 20
11516.874663363949
 30
0.0
 11
15800.87494558819
 21
11466.874663363949
 31
0.0
  0
LINE
  5
2B43
  8
0
  6
CONTINUOUS
 10
16887.47494558819
 20
11466.874663363949
 30
0.0
 11
16887.47494558819
 21
11441.874663363949
 31
0.0
  0
LINE
  5
2B44
  8
0
  6
CONTINUOUS
 10
14387.47494558819
 20
11441.874663363949
 30
0.0
 11
14474.07494558818
 21
11466.874663363949
 31
0.0
  0
LINE
  5
2B45
  8
0
  6
CONTINUOUS
 10
13387.474945588179
 20
11441.874663363949
 30
0.0
 11
13387.474945588179
 21
11541.874663363949
 31
0.0
  0
LINE
  5
2B46
  8
0
  6
CONTINUOUS
 10
14387.47494558819
 20
11541.874663363949
 30
0.0
 11
14387.47494558819
 21
11441.874663363949
 31
0.0
  0
LINE
  5
2B47
  8
0
  6
CONTINUOUS
 10
13387.474945588179
 20
11391.77677403805
 30
0.0
 11
13387.474945588179
 21
11441.874663363949
 31
0.0
  0
LINE
  5
2B48
  8
0
  6
CONTINUOUS
 10
16887.47494558819
 20
11441.874663363949
 30
0.0
 11
16887.47494558819
 21
11391.77677403805
 31
0.0
  0
LINE
  5
2B49
  8
0
  6
CONTINUOUS
 10
15164.004128162231
 20
11390.993946876981
 30
0.0
 11
15146.32378044946
 21
11391.77677403805
 31
0.0
  0
LINE
  5
2B4A
  8
0
  6
CONTINUOUS
 10
16887.47494558819
 20
11391.77677403805
 30
0.0
 11
16887.47494558819
 21
11390.993946876981
 31
0.0
  0
LINE
  5
2B4B
  8
0
  6
CONTINUOUS
 10
13387.474945588179
 20
11390.993946876981
 30
0.0
 11
13387.474945588179
 21
11391.77677403805
 31
0.0
  0
LINE
  5
2B4C
  8
0
  6
CONTINUOUS
 10
15128.626110726909
 20
11391.77677403805
 30
0.0
 11
15110.945763014141
 21
11390.993946876981
 31
0.0
  0
LINE
  5
2B4D
  8
0
  6
CONTINUOUS
 10
15181.632543754289
 20
11389.42982497577
 30
0.0
 11
15164.004128162231
 21
11390.993946876981
 31
0.0
  0
LINE
  5
2B4E
  8
0
  6
CONTINUOUS
 10
16887.47494558819
 20
11390.993946876981
 30
0.0
 11
16887.47494558819
 21
11389.42982497577
 31
0.0
  0
LINE
  5
2B4F
  8
0
  6
CONTINUOUS
 10
13387.474945588179
 20
11389.42982497577
 30
0.0
 11
13387.474945588179
 21
11390.993946876981
 31
0.0
  0
LINE
  5
2B50
  8
0
  6
CONTINUOUS
 10
15110.945763014141
 20
11390.993946876981
 30
0.0
 11
15093.31734742206
 21
11389.42982497577
 31
0.0
  0
LINE
  5
2B51
  8
0
  6
CONTINUOUS
 10
15199.1745187743
 20
11387.087470176501
 30
0.0
 11
15181.632543754289
 21
11389.42982497577
 31
0.0
  0
LINE
  5
2B52
  8
0
  6
CONTINUOUS
 10
16887.47494558819
 20
11389.42982497577
 30
0.0
 11
16887.47494558819
 21
11387.087470176501
 31
0.0
  0
LINE
  5
2B53
  8
0
  6
CONTINUOUS
 10
13387.474945588179
 20
11387.087470176501
 30
0.0
 11
13387.474945588179
 21
11389.42982497577
 31
0.0
  0
LINE
  5
2B54
  8
0
  6
CONTINUOUS
 10
15093.31734742206
 20
11389.42982497577
 30
0.0
 11
15075.77537240206
 21
11387.087470176501
 31
0.0
  0
LINE
  5
2B55
  8
0
  6
CONTINUOUS
 10
15216.595713982389
 20
11383.97146774867
 30
0.0
 11
15199.1745187743
 21
11387.087470176501
 31
0.0
  0
LINE
  5
2B56
  8
0
  6
CONTINUOUS
 10
16887.47494558819
 20
11387.087470176501
 30
0.0
 11
16887.47494558819
 21
11383.97146774867
 31
0.0
  0
LINE
  5
2B57
  8
0
  6
CONTINUOUS
 10
13387.474945588179
 20
11383.97146774867
 30
0.0
 11
13387.474945588179
 21
11387.087470176501
 31
0.0
  0
LINE
  5
2B58
  8
0
  6
CONTINUOUS
 10
15075.77537240206
 20
11387.087470176501
 30
0.0
 11
15058.35417719398
 21
11383.97146774867
 31
0.0
  0
LINE
  5
2B59
  8
0
  6
CONTINUOUS
 10
15233.86202657083
 20
11380.087917413381
 30
0.0
 11
15216.595713982389
 21
11383.97146774867
 31
0.0
  0
LINE
  5
2B5A
  8
0
  6
CONTINUOUS
 10
16887.47494558819
 20
11383.97146774867
 30
0.0
 11
16887.47494558819
 21
11380.087917413381
 31
0.0
  0
LINE
  5
2B5B
  8
0
  6
CONTINUOUS
 10
13387.474945588179
 20
11380.087917413381
 30
0.0
 11
13387.474945588179
 21
11383.97146774867
 31
0.0
  0
LINE
  5
2B5C
  8
0
  6
CONTINUOUS
 10
15058.35417719398
 20
11383.97146774867
 30
0.0
 11
15041.08786460553
 21
11380.087917413381
 31
0.0
  0
LINE
  5
2B5D
  8
0
  6
CONTINUOUS
 10
15250.939656921901
 20
11375.44442140277
 30
0.0
 11
15233.86202657083
 21
11380.087917413381
 31
0.0
  0
LINE
  5
2B5E
  8
0
  6
CONTINUOUS
 10
16887.47494558819
 20
11380.087917413381
 30
0.0
 11
16887.47494558819
 21
11375.44442140277
 31
0.0
  0
LINE
  5
2B5F
  8
0
  6
CONTINUOUS
 10
13387.474945588179
 20
11375.44442140277
 30
0.0
 11
13387.474945588179
 21
11380.087917413381
 31
0.0
  0
LINE
  5
2B60
  8
0
  6
CONTINUOUS
 10
15041.08786460553
 20
11380.087917413381
 30
0.0
 11
15024.010234254471
 21
11375.44442140277
 31
0.0
  0
LINE
  5
2B61
  8
0
  6
CONTINUOUS
 10
15267.795174772231
 20
11370.050069578339
 30
0.0
 11
15250.939656921901
 21
11375.44442140277
 31
0.0
  0
LINE
  5
2B62
  8
0
  6
CONTINUOUS
 10
16887.47494558819
 20
11375.44442140277
 30
0.0
 11
16887.47494558819
 21
11370.050069578339
 31
0.0
  0
LINE
  5
2B63
  8
0
  6
CONTINUOUS
 10
13387.474945588179
 20
11370.050069578339
 30
0.0
 11
13387.474945588179
 21
11375.44442140277
 31
0.0
  0
LINE
  5
2B64
  8
0
  6
CONTINUOUS
 10
15024.010234254471
 20
11375.44442140277
 30
0.0
 11
15007.15471640414
 21
11370.050069578339
 31
0.0
  0
LINE
  5
2B65
  8
0
  6
CONTINUOUS
 10
15284.39558465409
 20
11363.91542163711
 30
0.0
 11
15267.795174772231
 21
11370.050069578339
 31
0.0
  0
LINE
  5
2B66
  8
0
  6
CONTINUOUS
 10
16887.47494558819
 20
11370.050069578339
 30
0.0
 11
16887.47494558819
 21
11363.91542163711
 31
0.0
  0
LINE
  5
2B67
  8
0
  6
CONTINUOUS
 10
13387.474945588179
 20
11363.91542163711
 30
0.0
 11
13387.474945588179
 21
11370.050069578339
 31
0.0
  0
LINE
  5
2B68
  8
0
  6
CONTINUOUS
 10
15007.15471640414
 20
11370.050069578339
 30
0.0
 11
14990.554306522279
 21
11363.91542163711
 31
0.0
  0
LINE
  5
2B69
  8
0
  6
CONTINUOUS
 10
15300.70839048557
 20
11357.052486440511
 30
0.0
 11
15284.39558465409
 21
11363.91542163711
 31
0.0
  0
LINE
  5
2B6A
  8
0
  6
CONTINUOUS
 10
16887.47494558819
 20
11363.91542163711
 30
0.0
 11
16887.47494558819
 21
11357.052486440511
 31
0.0
  0
LINE
  5
2B6B
  8
0
  6
CONTINUOUS
 10
13387.474945588179
 20
11357.052486440511
 30
0.0
 11
13387.474945588179
 21
11363.91542163711
 31
0.0
  0
LINE
  5
2B6C
  8
0
  6
CONTINUOUS
 10
14990.554306522279
 20
11363.91542163711
 30
0.0
 11
14974.2415006908
 21
11357.052486440511
 31
0.0
  0
LINE
  5
2B6D
  8
0
  6
CONTINUOUS
 10
15316.70165918322
 20
11349.474698506459
 30
0.0
 11
15300.70839048557
 21
11357.052486440511
 31
0.0
  0
LINE
  5
2B6E
  8
0
  6
CONTINUOUS
 10
16887.47494558819
 20
11357.052486440511
 30
0.0
 11
16887.47494558819
 21
11349.474698506459
 31
0.0
  0
LINE
  5
2B6F
  8
0
  6
CONTINUOUS
 10
13387.474945588179
 20
11349.474698506459
 30
0.0
 11
13387.474945588179
 21
11357.052486440511
 31
0.0
  0
LINE
  5
2B70
  8
0
  6
CONTINUOUS
 10
14974.2415006908
 20
11357.052486440511
 30
0.0
 11
14958.24823199315
 21
11349.474698506459
 31
0.0
  0
LINE
  5
2B71
  8
0
  6
CONTINUOUS
 10
15331.063310157429
 20
11341.874663363949
 30
0.0
 11
15316.70165918322
 21
11349.474698506459
 31
0.0
  0
LINE
  5
2B72
  8
0
  6
CONTINUOUS
 10
16887.47494558819
 20
11349.474698506459
 30
0.0
 11
16887.47494558819
 21
11341.874663363949
 31
0.0
  0
LINE
  5
2B73
  8
0
  6
CONTINUOUS
 10
13387.474945588179
 20
11341.874663363949
 30
0.0
 11
13387.474945588179
 21
11349.474698506459
 31
0.0
  0
LINE
  5
2B74
  8
0
  6
CONTINUOUS
 10
14958.24823199315
 20
11349.474698506459
 30
0.0
 11
14943.886581018931
 21
11341.874663363949
 31
0.0
  0
LINE
  5
2B75
  8
0
  6
CONTINUOUS
 10
15332.3440831725
 20
11341.19689171071
 30
0.0
 11
15331.063310157429
 21
11341.874663363949
 31
0.0
  0
LINE
  5
2B76
  8
0
  6
CONTINUOUS
 10
15887.474945588179
 20
11341.874663363949
 30
0.0
 11
15885.127144581351
 21
11341.19689171071
 31
0.0
  0
LINE
  5
2B77
  8
0
  6
CONTINUOUS
 10
14389.82274659502
 20
11341.19689171071
 30
0.0
 11
14387.47494558819
 21
11341.874663363949
 31
0.0
  0
LINE
  5
2B78
  8
0
  6
CONTINUOUS
 10
14943.886581018931
 20
11341.874663363949
 30
0.0
 11
14942.605808003869
 21
11341.19689171071
 31
0.0
  0
LINE
  5
2B79
  8
0
  6
CONTINUOUS
 10
15347.6050416739
 20
11332.235270248781
 30
0.0
 11
15332.3440831725
 21
11341.19689171071
 31
0.0
  0
LINE
  5
2B7A
  8
0
  6
CONTINUOUS
 10
15885.127144581351
 20
11341.19689171071
 30
0.0
 11
15854.084087837209
 21
11332.235270248781
 31
0.0
  0
LINE
  5
2B7B
  8
0
  6
CONTINUOUS
 10
14420.865803339149
 20
11332.235270248781
 30
0.0
 11
14389.82274659502
 21
11341.19689171071
 31
0.0
  0
LINE
  5
2B7C
  8
0
  6
CONTINUOUS
 10
14942.605808003869
 20
11341.19689171071
 30
0.0
 11
14927.34484950247
 21
11332.235270248781
 31
0.0
  0
LINE
  5
2B7D
  8
0
  6
CONTINUOUS
 10
15362.4546606445
 20
11322.60737691551
 30
0.0
 11
15347.6050416739
 21
11332.235270248781
 31
0.0
  0
LINE
  5
2B7E
  8
0
  6
CONTINUOUS
 10
15854.084087837209
 20
11332.235270248781
 30
0.0
 11
15820.7330653308
 21
11322.60737691551
 31
0.0
  0
LINE
  5
2B7F
  8
0
  6
CONTINUOUS
 10
14454.216825845569
 20
11322.60737691551
 30
0.0
 11
14420.865803339149
 21
11332.235270248781
 31
0.0
  0
LINE
  5
2B80
  8
0
  6
CONTINUOUS
 10
14927.34484950247
 20
11332.235270248781
 30
0.0
 11
14912.495230531869
 21
11322.60737691551
 31
0.0
  0
LINE
  5
2B81
  8
0
  6
CONTINUOUS
 10
15370.493718485261
 20
11316.874663363949
 30
0.0
 11
15362.4546606445
 21
11322.60737691551
 31
0.0
  0
LINE
  5
2B82
  8
0
  6
CONTINUOUS
 10
15820.7330653308
 20
11322.60737691551
 30
0.0
 11
15800.87494558819
 21
11316.874663363949
 31
0.0
  0
LINE
  5
2B83
  8
0
  6
CONTINUOUS
 10
14474.07494558818
 20
11316.874663363949
 30
0.0
 11
14454.216825845569
 21
11322.60737691551
 31
0.0
  0
LINE
  5
2B84
  8
0
  6
CONTINUOUS
 10
14912.495230531869
 20
11322.60737691551
 30
0.0
 11
14904.456172691111
 21
11316.874663363949
 31
0.0
  0
LINE
  5
2B85
  8
0
  6
CONTINUOUS
 10
15376.86387125781
 20
11312.33205876425
 30
0.0
 11
15370.493718485261
 21
11316.874663363949
 31
0.0
  0
LINE
  5
2B86
  8
0
  6
CONTINUOUS
 10
15800.87494558819
 20
11316.874663363949
 30
0.0
 11
15800.87494558819
 21
11312.33205876425
 31
0.0
  0
LINE
  5
2B87
  8
0
  6
CONTINUOUS
 10
14474.07494558818
 20
11312.33205876425
 30
0.0
 11
14474.07494558818
 21
11316.874663363949
 31
0.0
  0
LINE
  5
2B88
  8
0
  6
CONTINUOUS
 10
14904.456172691111
 20
11316.874663363949
 30
0.0
 11
14898.086019918561
 21
11312.33205876425
 31
0.0
  0
LINE
  5
2B89
  8
0
  6
CONTINUOUS
 10
15390.8044668074
 20
11301.429430212789
 30
0.0
 11
15376.86387125781
 21
11312.33205876425
 31
0.0
  0
LINE
  5
2B8A
  8
0
  6
CONTINUOUS
 10
15800.87494558819
 20
11312.33205876425
 30
0.0
 11
15800.87494558819
 21
11301.429430212789
 31
0.0
  0
LINE
  5
2B8B
  8
0
  6
CONTINUOUS
 10
14474.07494558818
 20
11301.429430212789
 30
0.0
 11
14474.07494558818
 21
11312.33205876425
 31
0.0
  0
LINE
  5
2B8C
  8
0
  6
CONTINUOUS
 10
14898.086019918561
 20
11312.33205876425
 30
0.0
 11
14884.14542436896
 21
11301.429430212789
 31
0.0
  0
LINE
  5
2B8D
  8
0
  6
CONTINUOUS
 10
15404.249157922841
 20
11289.920833668521
 30
0.0
 11
15390.8044668074
 21
11301.429430212789
 31
0.0
  0
LINE
  5
2B8E
  8
0
  6
CONTINUOUS
 10
15800.87494558819
 20
11301.429430212789
 30
0.0
 11
15800.87494558819
 21
11289.920833668521
 31
0.0
  0
LINE
  5
2B8F
  8
0
  6
CONTINUOUS
 10
14474.07494558818
 20
11289.920833668521
 30
0.0
 11
14474.07494558818
 21
11301.429430212789
 31
0.0
  0
LINE
  5
2B90
  8
0
  6
CONTINUOUS
 10
14884.14542436896
 20
11301.429430212789
 30
0.0
 11
14870.70073325353
 21
11289.920833668521
 31
0.0
  0
LINE
  5
2B91
  8
0
  6
CONTINUOUS
 10
15417.171625989909
 20
11277.82879774962
 30
0.0
 11
15404.249157922841
 21
11289.920833668521
 31
0.0
  0
LINE
  5
2B92
  8
0
  6
CONTINUOUS
 10
15800.87494558819
 20
11289.920833668521
 30
0.0
 11
15800.87494558819
 21
11277.82879774962
 31
0.0
  0
LINE
  5
2B93
  8
0
  6
CONTINUOUS
 10
14474.07494558818
 20
11277.82879774962
 30
0.0
 11
14474.07494558818
 21
11289.920833668521
 31
0.0
  0
LINE
  5
2B94
  8
0
  6
CONTINUOUS
 10
14870.70073325353
 20
11289.920833668521
 30
0.0
 11
14857.77826518646
 21
11277.82879774962
 31
0.0
  0
LINE
  5
2B95
  8
0
  6
CONTINUOUS
 10
15427.88605413038
 20
11266.874663363949
 30
0.0
 11
15417.171625989909
 21
11277.82879774962
 31
0.0
  0
LINE
  5
2B96
  8
0
  6
CONTINUOUS
 10
15800.87494558819
 20
11277.82879774962
 30
0.0
 11
15800.87494558819
 21
11266.874663363949
 31
0.0
  0
LINE
  5
2B97
  8
0
  6
CONTINUOUS
 10
14474.07494558818
 20
11266.874663363949
 30
0.0
 11
14474.07494558818
 21
11277.82879774962
 31
0.0
  0
LINE
  5
2B98
  8
0
  6
CONTINUOUS
 10
14857.77826518646
 20
11277.82879774962
 30
0.0
 11
14847.063837045989
 21
11266.874663363949
 31
0.0
  0
LINE
  5
2B99
  8
0
  6
CONTINUOUS
 10
15429.546574670519
 20
11265.17699318423
 30
0.0
 11
15427.88605413038
 21
11266.874663363949
 31
0.0
  0
LINE
  5
2B9A
  8
0
  6
CONTINUOUS
 10
15800.87494558819
 20
11266.874663363949
 30
0.0
 11
15806.75567509075
 21
11265.17699318423
 31
0.0
  0
LINE
  5
2B9B
  8
0
  6
CONTINUOUS
 10
14468.19421608562
 20
11265.17699318423
 30
0.0
 11
14474.07494558818
 21
11266.874663363949
 31
0.0
  0
LINE
  5
2B9C
  8
0
  6
CONTINUOUS
 10
14847.063837045989
 20
11266.874663363949
 30
0.0
 11
14845.40331650585
 21
11265.17699318423
 31
0.0
  0
LINE
  5
2B9D
  8
0
  6
CONTINUOUS
 10
15887.474945588179
 20
11251.990186473929
 30
0.0
 11
15887.474945588179
 21
11341.874663363949
 31
0.0
  0
LINE
  5
2B9E
  8
0
  6
CONTINUOUS
 10
16887.47494558819
 20
11341.874663363949
 30
0.0
 11
16887.47494558819
 21
11251.990186473929
 31
0.0
  0
LINE
  5
2B9F
  8
0
  6
CONTINUOUS
 10
15441.3497794215
 20
11251.990186473929
 30
0.0
 11
15429.546574670519
 21
11265.17699318423
 31
0.0
  0
LINE
  5
2BA0
  8
0
  6
CONTINUOUS
 10
15806.75567509075
 20
11265.17699318423
 30
0.0
 11
15852.434773535229
 21
11251.990186473929
 31
0.0
  0
LINE
  5
2BA1
  8
0
  6
CONTINUOUS
 10
14422.51511764114
 20
11251.990186473929
 30
0.0
 11
14468.19421608562
 21
11265.17699318423
 31
0.0
  0
LINE
  5
2BA2
  8
0
  6
CONTINUOUS
 10
14845.40331650585
 20
11265.17699318423
 30
0.0
 11
14833.600111754869
 21
11251.990186473929
 31
0.0
  0
LINE
  5
2BA3
  8
0
  6
CONTINUOUS
 10
16887.47494558819
 20
11251.990186473929
 30
0.0
 11
16887.47494558819
 21
11241.874663363949
 31
0.0
  0
LINE
  5
2BA4
  8
0
  6
CONTINUOUS
 10
15449.6279934914
 20
11241.874663363949
 30
0.0
 11
15441.3497794215
 21
11251.990186473929
 31
0.0
  0
LINE
  5
2BA5
  8
0
  6
CONTINUOUS
 10
14387.47494558819
 20
11241.874663363949
 30
0.0
 11
14422.51511764114
 21
11251.990186473929
 31
0.0
  0
LINE
  5
2BA6
  8
0
  6
CONTINUOUS
 10
14833.600111754869
 20
11251.990186473929
 30
0.0
 11
14825.321897684969
 21
11241.874663363949
 31
0.0
  0
LINE
  5
2BA7
  8
0
  6
CONTINUOUS
 10
13387.474945588179
 20
11241.874663363949
 30
0.0
 11
13387.474945588179
 21
11341.874663363949
 31
0.0
  0
LINE
  5
2BA8
  8
0
  6
CONTINUOUS
 10
14387.47494558819
 20
11341.874663363949
 30
0.0
 11
14387.47494558819
 21
11241.874663363949
 31
0.0
  0
LINE
  5
2BA9
  8
0
  6
CONTINUOUS
 10
15452.558134915271
 20
11238.2941914121
 30
0.0
 11
15449.6279934914
 21
11241.874663363949
 31
0.0
  0
LINE
  5
2BAA
  8
0
  6
CONTINUOUS
 10
16887.47494558819
 20
11241.874663363949
 30
0.0
 11
16887.47494558819
 21
11238.2941914121
 31
0.0
  0
LINE
  5
2BAB
  8
0
  6
CONTINUOUS
 10
13387.474945588179
 20
11238.2941914121
 30
0.0
 11
13387.474945588179
 21
11241.874663363949
 31
0.0
  0
LINE
  5
2BAC
  8
0
  6
CONTINUOUS
 10
14825.321897684969
 20
11241.874663363949
 30
0.0
 11
14822.3917562611
 21
11238.2941914121
 31
0.0
  0
LINE
  5
2BAD
  8
0
  6
CONTINUOUS
 10
15463.149700269611
 20
11224.11581855224
 30
0.0
 11
15452.558134915271
 21
11238.2941914121
 31
0.0
  0
LINE
  5
2BAE
  8
0
  6
CONTINUOUS
 10
16887.47494558819
 20
11238.2941914121
 30
0.0
 11
16887.47494558819
 21
11224.11581855224
 31
0.0
  0
LINE
  5
2BAF
  8
0
  6
CONTINUOUS
 10
13387.474945588179
 20
11224.11581855224
 30
0.0
 11
13387.474945588179
 21
11238.2941914121
 31
0.0
  0
LINE
  5
2BB0
  8
0
  6
CONTINUOUS
 10
14822.3917562611
 20
11238.2941914121
 30
0.0
 11
14811.800190906761
 21
11224.11581855224
 31
0.0
  0
LINE
  5
2BB1
  8
0
  6
CONTINUOUS
 10
15473.10374199796
 20
11209.48282272504
 30
0.0
 11
15463.149700269611
 21
11224.11581855224
 31
0.0
  0
LINE
  5
2BB2
  8
0
  6
CONTINUOUS
 10
16887.47494558819
 20
11224.11581855224
 30
0.0
 11
16887.47494558819
 21
11209.48282272504
 31
0.0
  0
LINE
  5
2BB3
  8
0
  6
CONTINUOUS
 10
13387.474945588179
 20
11209.48282272504
 30
0.0
 11
13387.474945588179
 21
11224.11581855224
 31
0.0
  0
LINE
  5
2BB4
  8
0
  6
CONTINUOUS
 10
14811.800190906761
 20
11224.11581855224
 30
0.0
 11
14801.846149178409
 21
11209.48282272504
 31
0.0
  0
LINE
  5
2BB5
  8
0
  6
CONTINUOUS
 10
15482.400774596201
 20
11194.423848707011
 30
0.0
 11
15473.10374199796
 21
11209.48282272504
 31
0.0
  0
LINE
  5
2BB6
  8
0
  6
CONTINUOUS
 10
16887.47494558819
 20
11209.48282272504
 30
0.0
 11
16887.47494558819
 21
11194.423848707011
 31
0.0
  0
LINE
  5
2BB7
  8
0
  6
CONTINUOUS
 10
13387.474945588179
 20
11194.423848707011
 30
0.0
 11
13387.474945588179
 21
11209.48282272504
 31
0.0
  0
LINE
  5
2BB8
  8
0
  6
CONTINUOUS
 10
14801.846149178409
 20
11209.48282272504
 30
0.0
 11
14792.54911658017
 21
11194.423848707011
 31
0.0
  0
LINE
  5
2BB9
  8
0
  6
CONTINUOUS
 10
15491.02259868641
 20
11178.96837514694
 30
0.0
 11
15482.400774596201
 21
11194.423848707011
 31
0.0
  0
LINE
  5
2BBA
  8
0
  6
CONTINUOUS
 10
16887.47494558819
 20
11194.423848707011
 30
0.0
 11
16887.47494558819
 21
11178.96837514694
 31
0.0
  0
LINE
  5
2BBB
  8
0
  6
CONTINUOUS
 10
13387.474945588179
 20
11178.96837514694
 30
0.0
 11
13387.474945588179
 21
11194.423848707011
 31
0.0
  0
LINE
  5
2BBC
  8
0
  6
CONTINUOUS
 10
14792.54911658017
 20
11194.423848707011
 30
0.0
 11
14783.92729248996
 21
11178.96837514694
 31
0.0
  0
LINE
  5
2BBD
  8
0
  6
CONTINUOUS
 10
15498.95233664306
 20
11163.14665686013
 30
0.0
 11
15491.02259868641
 21
11178.96837514694
 31
0.0
  0
LINE
  5
2BBE
  8
0
  6
CONTINUOUS
 10
16887.47494558819
 20
11178.96837514694
 30
0.0
 11
16887.47494558819
 21
11163.14665686013
 31
0.0
  0
LINE
  5
2BBF
  8
0
  6
CONTINUOUS
 10
13387.474945588179
 20
11163.14665686013
 30
0.0
 11
13387.474945588179
 21
11178.96837514694
 31
0.0
  0
LINE
  5
2BC0
  8
0
  6
CONTINUOUS
 10
14783.92729248996
 20
11178.96837514694
 30
0.0
 11
14775.9975545333
 21
11163.14665686013
 31
0.0
  0
LINE
  5
2BC1
  8
0
  6
CONTINUOUS
 10
15506.17446563173
 20
11146.989665603111
 30
0.0
 11
15498.95233664306
 21
11163.14665686013
 31
0.0
  0
LINE
  5
2BC2
  8
0
  6
CONTINUOUS
 10
16887.47494558819
 20
11163.14665686013
 30
0.0
 11
16887.47494558819
 21
11146.989665603111
 31
0.0
  0
LINE
  5
2BC3
  8
0
  6
CONTINUOUS
 10
13387.474945588179
 20
11146.989665603111
 30
0.0
 11
13387.474945588179
 21
11163.14665686013
 31
0.0
  0
LINE
  5
2BC4
  8
0
  6
CONTINUOUS
 10
14775.9975545333
 20
11163.14665686013
 30
0.0
 11
14768.775425544631
 21
11146.989665603111
 31
0.0
  0
LINE
  5
2BC5
  8
0
  6
CONTINUOUS
 10
15508.194403988189
 20
11141.874663363949
 30
0.0
 11
15506.17446563173
 21
11146.989665603111
 31
0.0
  0
LINE
  5
2BC6
  8
0
  6
CONTINUOUS
 10
16887.47494558819
 20
11146.989665603111
 30
0.0
 11
16887.47494558819
 21
11141.874663363949
 31
0.0
  0
LINE
  5
2BC7
  8
0
  6
CONTINUOUS
 10
13387.474945588179
 20
11141.874663363949
 30
0.0
 11
13387.474945588179
 21
11146.989665603111
 31
0.0
  0
LINE
  5
2BC8
  8
0
  6
CONTINUOUS
 10
14768.775425544631
 20
11146.989665603111
 30
0.0
 11
14766.75548718818
 21
11141.874663363949
 31
0.0
  0
LINE
  5
2BC9
  8
0
  6
CONTINUOUS
 10
15512.67484799577
 20
11130.529029445001
 30
0.0
 11
15508.194403988189
 21
11141.874663363949
 31
0.0
  0
LINE
  5
2BCA
  8
0
  6
CONTINUOUS
 10
15887.474945588179
 20
11141.874663363949
 30
0.0
 11
15848.17366969294
 21
11130.529029445001
 31
0.0
  0
LINE
  5
2BCB
  8
0
  6
CONTINUOUS
 10
14426.776221483429
 20
11130.529029445001
 30
0.0
 11
14387.47494558819
 21
11141.874663363949
 31
0.0
  0
LINE
  5
2BCC
  8
0
  6
CONTINUOUS
 10
14766.75548718818
 20
11141.874663363949
 30
0.0
 11
14762.2750431806
 21
11130.529029445001
 31
0.0
  0
LINE
  5
2BCD
  8
0
  6
CONTINUOUS
 10
15517.380178082831
 20
11116.874663363949
 30
0.0
 11
15512.67484799577
 21
11130.529029445001
 31
0.0
  0
LINE
  5
2BCE
  8
0
  6
CONTINUOUS
 10
15848.17366969294
 20
11130.529029445001
 30
0.0
 11
15800.87494558819
 21
11116.874663363949
 31
0.0
  0
LINE
  5
2BCF
  8
0
  6
CONTINUOUS
 10
14474.07494558818
 20
11116.874663363949
 30
0.0
 11
14426.776221483429
 21
11130.529029445001
 31
0.0
  0
LINE
  5
2BD0
  8
0
  6
CONTINUOUS
 10
14762.2750431806
 20
11130.529029445001
 30
0.0
 11
14757.56971309354
 21
11116.874663363949
 31
0.0
  0
LINE
  5
2BD1
  8
0
  6
CONTINUOUS
 10
15518.44075893144
 20
11113.79697085407
 30
0.0
 11
15517.380178082831
 21
11116.874663363949
 31
0.0
  0
LINE
  5
2BD2
  8
0
  6
CONTINUOUS
 10
15800.87494558819
 20
11116.874663363949
 30
0.0
 11
15800.87494558819
 21
11113.79697085407
 31
0.0
  0
LINE
  5
2BD3
  8
0
  6
CONTINUOUS
 10
14474.07494558818
 20
11113.79697085407
 30
0.0
 11
14474.07494558818
 21
11116.874663363949
 31
0.0
  0
LINE
  5
2BD4
  8
0
  6
CONTINUOUS
 10
14757.56971309354
 20
11116.874663363949
 30
0.0
 11
14756.50913224493
 21
11113.79697085407
 31
0.0
  0
LINE
  5
2BD5
  8
0
  6
CONTINUOUS
 10
15523.460911397309
 20
11096.826243620741
 30
0.0
 11
15518.44075893144
 21
11113.79697085407
 31
0.0
  0
LINE
  5
2BD6
  8
0
  6
CONTINUOUS
 10
15800.87494558819
 20
11113.79697085407
 30
0.0
 11
15800.87494558819
 21
11096.826243620741
 31
0.0
  0
LINE
  5
2BD7
  8
0
  6
CONTINUOUS
 10
14474.07494558818
 20
11096.826243620741
 30
0.0
 11
14474.07494558818
 21
11113.79697085407
 31
0.0
  0
LINE
  5
2BD8
  8
0
  6
CONTINUOUS
 10
14756.50913224493
 20
11113.79697085407
 30
0.0
 11
14751.48897977906
 21
11096.826243620741
 31
0.0
  0
LINE
  5
2BD9
  8
0
  6
CONTINUOUS
 10
15527.72547820919
 20
11079.65006874053
 30
0.0
 11
15523.460911397309
 21
11096.826243620741
 31
0.0
  0
LINE
  5
2BDA
  8
0
  6
CONTINUOUS
 10
15800.87494558819
 20
11096.826243620741
 30
0.0
 11
15800.87494558819
 21
11079.65006874053
 31
0.0
  0
LINE
  5
2BDB
  8
0
  6
CONTINUOUS
 10
14474.07494558818
 20
11079.65006874053
 30
0.0
 11
14474.07494558818
 21
11096.826243620741
 31
0.0
  0
LINE
  5
2BDC
  8
0
  6
CONTINUOUS
 10
14751.48897977906
 20
11096.826243620741
 30
0.0
 11
14747.22441296718
 21
11079.65006874053
 31
0.0
  0
LINE
  5
2BDD
  8
0
  6
CONTINUOUS
 10
15530.30341273617
 20
11066.874663363949
 30
0.0
 11
15527.72547820919
 21
11079.65006874053
 31
0.0
  0
LINE
  5
2BDE
  8
0
  6
CONTINUOUS
 10
15800.87494558819
 20
11079.65006874053
 30
0.0
 11
15800.87494558819
 21
11066.874663363949
 31
0.0
  0
LINE
  5
2BDF
  8
0
  6
CONTINUOUS
 10
14474.07494558818
 20
11066.874663363949
 30
0.0
 11
14474.07494558818
 21
11079.65006874053
 31
0.0
  0
LINE
  5
2BE0
  8
0
  6
CONTINUOUS
 10
14747.22441296718
 20
11079.65006874053
 30
0.0
 11
14744.6464784402
 21
11066.874663363949
 31
0.0
  0
LINE
  5
2BE1
  8
0
  6
CONTINUOUS
 10
15531.22611127727
 20
11062.302069382369
 30
0.0
 11
15530.30341273617
 21
11066.874663363949
 31
0.0
  0
LINE
  5
2BE2
  8
0
  6
CONTINUOUS
 10
15800.87494558819
 20
11066.874663363949
 30
0.0
 11
15816.7144111404
 21
11062.302069382369
 31
0.0
  0
LINE
  5
2BE3
  8
0
  6
CONTINUOUS
 10
14458.23548003597
 20
11062.302069382369
 30
0.0
 11
14474.07494558818
 21
11066.874663363949
 31
0.0
  0
LINE
  5
2BE4
  8
0
  6
CONTINUOUS
 10
14744.6464784402
 20
11066.874663363949
 30
0.0
 11
14743.72377989909
 21
11062.302069382369
 31
0.0
  0
LINE
  5
2BE5
  8
0
  6
CONTINUOUS
 10
15887.474945588179
 20
11044.816205069639
 30
0.0
 11
15887.474945588179
 21
11141.874663363949
 31
0.0
  0
LINE
  5
2BE6
  8
0
  6
CONTINUOUS
 10
16887.47494558819
 20
11141.874663363949
 30
0.0
 11
16887.47494558819
 21
11044.816205069639
 31
0.0
  0
LINE
  5
2BE7
  8
0
  6
CONTINUOUS
 10
15533.95595794795
 20
11044.816205069639
 30
0.0
 11
15531.22611127727
 21
11062.302069382369
 31
0.0
  0
LINE
  5
2BE8
  8
0
  6
CONTINUOUS
 10
15816.7144111404
 20
11062.302069382369
 30
0.0
 11
15877.28544511968
 21
11044.816205069639
 31
0.0
  0
LINE
  5
2BE9
  8
0
  6
CONTINUOUS
 10
14397.664446056689
 20
11044.816205069639
 30
0.0
 11
14458.23548003597
 21
11062.302069382369
 31
0.0
  0
LINE
  5
2BEA
  8
0
  6
CONTINUOUS
 10
14743.72377989909
 20
11062.302069382369
 30
0.0
 11
14740.993933228419
 21
11044.816205069639
 31
0.0
  0
LINE
  5
2BEB
  8
0
  6
CONTINUOUS
 10
16887.47494558819
 20
11044.816205069639
 30
0.0
 11
16887.47494558819
 21
11041.874663363949
 31
0.0
  0
LINE
  5
2BEC
  8
0
  6
CONTINUOUS
 10
15534.282683467251
 20
11041.874663363949
 30
0.0
 11
15533.95595794795
 21
11044.816205069639
 31
0.0
  0
LINE
  5
2BED
  8
0
  6
CONTINUOUS
 10
14387.47494558819
 20
11041.874663363949
 30
0.0
 11
14397.664446056689
 21
11044.816205069639
 31
0.0
  0
LINE
  5
2BEE
  8
0
  6
CONTINUOUS
 10
14740.993933228419
 20
11044.816205069639
 30
0.0
 11
14740.667207709121
 21
11041.874663363949
 31
0.0
  0
LINE
  5
2BEF
  8
0
  6
CONTINUOUS
 10
13387.474945588179
 20
11041.874663363949
 30
0.0
 11
13387.474945588179
 21
11141.874663363949
 31
0.0
  0
LINE
  5
2BF0
  8
0
  6
CONTINUOUS
 10
14387.47494558819
 20
11141.874663363949
 30
0.0
 11
14387.47494558819
 21
11041.874663363949
 31
0.0
  0
LINE
  5
2BF1
  8
0
  6
CONTINUOUS
 10
15535.909674418161
 20
11027.226705202889
 30
0.0
 11
15534.282683467251
 21
11041.874663363949
 31
0.0
  0
LINE
  5
2BF2
  8
0
  6
CONTINUOUS
 10
16887.47494558819
 20
11041.874663363949
 30
0.0
 11
16887.47494558819
 21
11027.226705202889
 31
0.0
  0
LINE
  5
2BF3
  8
0
  6
CONTINUOUS
 10
13387.474945588179
 20
11027.226705202889
 30
0.0
 11
13387.474945588179
 21
11041.874663363949
 31
0.0
  0
LINE
  5
2BF4
  8
0
  6
CONTINUOUS
 10
14740.667207709121
 20
11041.874663363949
 30
0.0
 11
14739.040216758211
 21
11027.226705202889
 31
0.0
  0
LINE
  5
2BF5
  8
0
  6
CONTINUOUS
 10
15537.08343619617
 20
11009.5680020541
 30
0.0
 11
15535.909674418161
 21
11027.226705202889
 31
0.0
  0
LINE
  5
2BF6
  8
0
  6
CONTINUOUS
 10
16887.47494558819
 20
11027.226705202889
 30
0.0
 11
16887.47494558819
 21
11009.5680020541
 31
0.0
  0
LINE
  5
2BF7
  8
0
  6
CONTINUOUS
 10
13387.474945588179
 20
11009.5680020541
 30
0.0
 11
13387.474945588179
 21
11027.226705202889
 31
0.0
  0
LINE
  5
2BF8
  8
0
  6
CONTINUOUS
 10
14739.040216758211
 20
11027.226705202889
 30
0.0
 11
14737.8664549802
 21
11009.5680020541
 31
0.0
  0
LINE
  5
2BF9
  8
0
  6
CONTINUOUS
 10
15537.47494558819
 20
10991.874663363949
 30
0.0
 11
15537.08343619617
 21
11009.5680020541
 31
0.0
  0
LINE
  5
2BFA
  8
0
  6
CONTINUOUS
 10
16887.47494558819
 20
11009.5680020541
 30
0.0
 11
16887.47494558819
 21
10991.874663363949
 31
0.0
  0
LINE
  5
2BFB
  8
0
  6
CONTINUOUS
 10
13387.474945588179
 20
10991.874663363949
 30
0.0
 11
13387.474945588179
 21
11009.5680020541
 31
0.0
  0
LINE
  5
2BFC
  8
0
  6
CONTINUOUS
 10
14737.8664549802
 20
11009.5680020541
 30
0.0
 11
14737.474945588179
 21
10991.874663363949
 31
0.0
  0
LINE
  5
2BFD
  8
0
  6
CONTINUOUS
 10
15537.08343619617
 20
10974.1813246738
 30
0.0
 11
15537.47494558819
 21
10991.874663363949
 31
0.0
  0
LINE
  5
2BFE
  8
0
  6
CONTINUOUS
 10
16887.47494558819
 20
10991.874663363949
 30
0.0
 11
16887.47494558819
 21
10974.1813246738
 31
0.0
  0
LINE
  5
2BFF
  8
0
  6
CONTINUOUS
 10
13387.474945588179
 20
10974.1813246738
 30
0.0
 11
13387.474945588179
 21
10991.874663363949
 31
0.0
  0
LINE
  5
2C00
  8
0
  6
CONTINUOUS
 10
14737.474945588179
 20
10991.874663363949
 30
0.0
 11
14737.8664549802
 21
10974.1813246738
 31
0.0
  0
LINE
  5
2C01
  8
0
  6
CONTINUOUS
 10
15535.909674418161
 20
10956.52262152501
 30
0.0
 11
15537.08343619617
 21
10974.1813246738
 31
0.0
  0
LINE
  5
2C02
  8
0
  6
CONTINUOUS
 10
16887.47494558819
 20
10974.1813246738
 30
0.0
 11
16887.47494558819
 21
10956.52262152501
 31
0.0
  0
LINE
  5
2C03
  8
0
  6
CONTINUOUS
 10
13387.474945588179
 20
10956.52262152501
 30
0.0
 11
13387.474945588179
 21
10974.1813246738
 31
0.0
  0
LINE
  5
2C04
  8
0
  6
CONTINUOUS
 10
14737.8664549802
 20
10974.1813246738
 30
0.0
 11
14739.040216758211
 21
10956.52262152501
 31
0.0
  0
LINE
  5
2C05
  8
0
  6
CONTINUOUS
 10
15534.282683467251
 20
10941.874663363949
 30
0.0
 11
15535.909674418161
 21
10956.52262152501
 31
0.0
  0
LINE
  5
2C06
  8
0
  6
CONTINUOUS
 10
16887.47494558819
 20
10956.52262152501
 30
0.0
 11
16887.47494558819
 21
10941.874663363949
 31
0.0
  0
LINE
  5
2C07
  8
0
  6
CONTINUOUS
 10
13387.474945588179
 20
10941.874663363949
 30
0.0
 11
13387.474945588179
 21
10956.52262152501
 31
0.0
  0
LINE
  5
2C08
  8
0
  6
CONTINUOUS
 10
14739.040216758211
 20
10956.52262152501
 30
0.0
 11
14740.667207709121
 21
10941.874663363949
 31
0.0
  0
LINE
  5
2C09
  8
0
  6
CONTINUOUS
 10
15533.95595794795
 20
10938.93312165826
 30
0.0
 11
15534.282683467251
 21
10941.874663363949
 31
0.0
  0
LINE
  5
2C0A
  8
0
  6
CONTINUOUS
 10
15887.474945588179
 20
10941.874663363949
 30
0.0
 11
15877.28544511968
 21
10938.93312165826
 31
0.0
  0
LINE
  5
2C0B
  8
0
  6
CONTINUOUS
 10
14397.664446056689
 20
10938.93312165826
 30
0.0
 11
14387.47494558819
 21
10941.874663363949
 31
0.0
  0
LINE
  5
2C0C
  8
0
  6
CONTINUOUS
 10
14740.667207709121
 20
10941.874663363949
 30
0.0
 11
14740.993933228419
 21
10938.93312165826
 31
0.0
  0
LINE
  5
2C0D
  8
0
  6
CONTINUOUS
 10
15531.226111277279
 20
10921.44725734554
 30
0.0
 11
15533.95595794795
 21
10938.93312165826
 31
0.0
  0
LINE
  5
2C0E
  8
0
  6
CONTINUOUS
 10
15877.28544511968
 20
10938.93312165826
 30
0.0
 11
15816.7144111404
 21
10921.44725734554
 31
0.0
  0
LINE
  5
2C0F
  8
0
  6
CONTINUOUS
 10
14458.23548003597
 20
10921.44725734554
 30
0.0
 11
14397.664446056689
 21
10938.93312165826
 31
0.0
  0
LINE
  5
2C10
  8
0
  6
CONTINUOUS
 10
14740.993933228419
 20
10938.93312165826
 30
0.0
 11
14743.723779899099
 21
10921.44725734554
 31
0.0
  0
LINE
  5
2C11
  8
0
  6
CONTINUOUS
 10
15530.30341273617
 20
10916.874663363949
 30
0.0
 11
15531.226111277279
 21
10921.44725734554
 31
0.0
  0
LINE
  5
2C12
  8
0
  6
CONTINUOUS
 10
15816.7144111404
 20
10921.44725734554
 30
0.0
 11
15800.87494558819
 21
10916.874663363949
 31
0.0
  0
LINE
  5
2C13
  8
0
  6
CONTINUOUS
 10
14474.07494558818
 20
10916.874663363949
 30
0.0
 11
14458.23548003597
 21
10921.44725734554
 31
0.0
  0
LINE
  5
2C14
  8
0
  6
CONTINUOUS
 10
14743.723779899099
 20
10921.44725734554
 30
0.0
 11
14744.6464784402
 21
10916.874663363949
 31
0.0
  0
LINE
  5
2C15
  8
0
  6
CONTINUOUS
 10
15527.72547820919
 20
10904.099257987369
 30
0.0
 11
15530.30341273617
 21
10916.874663363949
 31
0.0
  0
LINE
  5
2C16
  8
0
  6
CONTINUOUS
 10
15800.87494558819
 20
10916.874663363949
 30
0.0
 11
15800.87494558819
 21
10904.099257987369
 31
0.0
  0
LINE
  5
2C17
  8
0
  6
CONTINUOUS
 10
14474.07494558818
 20
10904.099257987369
 30
0.0
 11
14474.07494558818
 21
10916.874663363949
 31
0.0
  0
LINE
  5
2C18
  8
0
  6
CONTINUOUS
 10
14744.6464784402
 20
10916.874663363949
 30
0.0
 11
14747.22441296718
 21
10904.099257987369
 31
0.0
  0
LINE
  5
2C19
  8
0
  6
CONTINUOUS
 10
15523.460911397309
 20
10886.92308310716
 30
0.0
 11
15527.72547820919
 21
10904.099257987369
 31
0.0
  0
LINE
  5
2C1A
  8
0
  6
CONTINUOUS
 10
15800.87494558819
 20
10904.099257987369
 30
0.0
 11
15800.87494558819
 21
10886.92308310716
 31
0.0
  0
LINE
  5
2C1B
  8
0
  6
CONTINUOUS
 10
14474.07494558818
 20
10886.92308310716
 30
0.0
 11
14474.07494558818
 21
10904.099257987369
 31
0.0
  0
LINE
  5
2C1C
  8
0
  6
CONTINUOUS
 10
14747.22441296718
 20
10904.099257987369
 30
0.0
 11
14751.48897977906
 21
10886.92308310716
 31
0.0
  0
LINE
  5
2C1D
  8
0
  6
CONTINUOUS
 10
15518.44075893144
 20
10869.95235587384
 30
0.0
 11
15523.460911397309
 21
10886.92308310716
 31
0.0
  0
LINE
  5
2C1E
  8
0
  6
CONTINUOUS
 10
15800.87494558819
 20
10886.92308310716
 30
0.0
 11
15800.87494558819
 21
10869.95235587384
 31
0.0
  0
LINE
  5
2C1F
  8
0
  6
CONTINUOUS
 10
14474.07494558818
 20
10869.95235587384
 30
0.0
 11
14474.07494558818
 21
10886.92308310716
 31
0.0
  0
LINE
  5
2C20
  8
0
  6
CONTINUOUS
 10
14751.48897977906
 20
10886.92308310716
 30
0.0
 11
14756.50913224493
 21
10869.95235587384
 31
0.0
  0
LINE
  5
2C21
  8
0
  6
CONTINUOUS
 10
15517.380178082831
 20
10866.874663363949
 30
0.0
 11
15518.44075893144
 21
10869.95235587384
 31
0.0
  0
LINE
  5
2C22
  8
0
  6
CONTINUOUS
 10
15800.87494558819
 20
10869.95235587384
 30
0.0
 11
15800.87494558819
 21
10866.874663363949
 31
0.0
  0
LINE
  5
2C23
  8
0
  6
CONTINUOUS
 10
14474.07494558818
 20
10866.874663363949
 30
0.0
 11
14474.07494558818
 21
10869.95235587384
 31
0.0
  0
LINE
  5
2C24
  8
0
  6
CONTINUOUS
 10
14756.50913224493
 20
10869.95235587384
 30
0.0
 11
14757.56971309354
 21
10866.874663363949
 31
0.0
  0
LINE
  5
2C25
  8
0
  6
CONTINUOUS
 10
15887.474945588179
 20
10853.2202972829
 30
0.0
 11
15887.474945588179
 21
10941.874663363949
 31
0.0
  0
LINE
  5
2C26
  8
0
  6
CONTINUOUS
 10
16887.47494558819
 20
10941.874663363949
 30
0.0
 11
16887.47494558819
 21
10853.2202972829
 31
0.0
  0
LINE
  5
2C27
  8
0
  6
CONTINUOUS
 10
15512.67484799577
 20
10853.2202972829
 30
0.0
 11
15517.380178082831
 21
10866.874663363949
 31
0.0
  0
LINE
  5
2C28
  8
0
  6
CONTINUOUS
 10
15800.87494558819
 20
10866.874663363949
 30
0.0
 11
15848.17366969294
 21
10853.2202972829
 31
0.0
  0
LINE
  5
2C29
  8
0
  6
CONTINUOUS
 10
14426.776221483429
 20
10853.2202972829
 30
0.0
 11
14474.07494558818
 21
10866.874663363949
 31
0.0
  0
LINE
  5
2C2A
  8
0
  6
CONTINUOUS
 10
14757.56971309354
 20
10866.874663363949
 30
0.0
 11
14762.2750431806
 21
10853.2202972829
 31
0.0
  0
LINE
  5
2C2B
  8
0
  6
CONTINUOUS
 10
16887.47494558819
 20
10853.2202972829
 30
0.0
 11
16887.47494558819
 21
10841.874663363949
 31
0.0
  0
LINE
  5
2C2C
  8
0
  6
CONTINUOUS
 10
15508.194403988189
 20
10841.874663363949
 30
0.0
 11
15512.67484799577
 21
10853.2202972829
 31
0.0
  0
LINE
  5
2C2D
  8
0
  6
CONTINUOUS
 10
14387.47494558819
 20
10841.874663363949
 30
0.0
 11
14426.776221483429
 21
10853.2202972829
 31
0.0
  0
LINE
  5
2C2E
  8
0
  6
CONTINUOUS
 10
14762.2750431806
 20
10853.2202972829
 30
0.0
 11
14766.75548718818
 21
10841.874663363949
 31
0.0
  0
LINE
  5
2C2F
  8
0
  6
CONTINUOUS
 10
13387.474945588179
 20
10841.874663363949
 30
0.0
 11
13387.474945588179
 21
10941.874663363949
 31
0.0
  0
LINE
  5
2C30
  8
0
  6
CONTINUOUS
 10
14387.47494558819
 20
10941.874663363949
 30
0.0
 11
14387.47494558819
 21
10841.874663363949
 31
0.0
  0
LINE
  5
2C31
  8
0
  6
CONTINUOUS
 10
15506.174465631741
 20
10836.75966112479
 30
0.0
 11
15508.194403988189
 21
10841.874663363949
 31
0.0
  0
LINE
  5
2C32
  8
0
  6
CONTINUOUS
 10
16887.47494558819
 20
10841.874663363949
 30
0.0
 11
16887.47494558819
 21
10836.75966112479
 31
0.0
  0
LINE
  5
2C33
  8
0
  6
CONTINUOUS
 10
13387.474945588179
 20
10836.75966112479
 30
0.0
 11
13387.474945588179
 21
10841.874663363949
 31
0.0
  0
LINE
  5
2C34
  8
0
  6
CONTINUOUS
 10
14766.75548718818
 20
10841.874663363949
 30
0.0
 11
14768.77542554464
 21
10836.75966112479
 31
0.0
  0
LINE
  5
2C35
  8
0
  6
CONTINUOUS
 10
15498.95233664306
 20
10820.602669867771
 30
0.0
 11
15506.174465631741
 21
10836.75966112479
 31
0.0
  0
LINE
  5
2C36
  8
0
  6
CONTINUOUS
 10
16887.47494558819
 20
10836.75966112479
 30
0.0
 11
16887.47494558819
 21
10820.602669867771
 31
0.0
  0
LINE
  5
2C37
  8
0
  6
CONTINUOUS
 10
13387.474945588179
 20
10820.602669867771
 30
0.0
 11
13387.474945588179
 21
10836.75966112479
 31
0.0
  0
LINE
  5
2C38
  8
0
  6
CONTINUOUS
 10
14768.77542554464
 20
10836.75966112479
 30
0.0
 11
14775.9975545333
 21
10820.602669867771
 31
0.0
  0
LINE
  5
2C39
  8
0
  6
CONTINUOUS
 10
15491.02259868641
 20
10804.78095158096
 30
0.0
 11
15498.95233664306
 21
10820.602669867771
 31
0.0
  0
LINE
  5
2C3A
  8
0
  6
CONTINUOUS
 10
16887.47494558819
 20
10820.602669867771
 30
0.0
 11
16887.47494558819
 21
10804.78095158096
 31
0.0
  0
LINE
  5
2C3B
  8
0
  6
CONTINUOUS
 10
13387.474945588179
 20
10804.78095158096
 30
0.0
 11
13387.474945588179
 21
10820.602669867771
 31
0.0
  0
LINE
  5
2C3C
  8
0
  6
CONTINUOUS
 10
14775.9975545333
 20
10820.602669867771
 30
0.0
 11
14783.92729248996
 21
10804.78095158096
 31
0.0
  0
LINE
  5
2C3D
  8
0
  6
CONTINUOUS
 10
15482.400774596201
 20
10789.32547802089
 30
0.0
 11
15491.02259868641
 21
10804.78095158096
 31
0.0
  0
LINE
  5
2C3E
  8
0
  6
CONTINUOUS
 10
16887.47494558819
 20
10804.78095158096
 30
0.0
 11
16887.47494558819
 21
10789.32547802089
 31
0.0
  0
LINE
  5
2C3F
  8
0
  6
CONTINUOUS
 10
13387.474945588179
 20
10789.32547802089
 30
0.0
 11
13387.474945588179
 21
10804.78095158096
 31
0.0
  0
LINE
  5
2C40
  8
0
  6
CONTINUOUS
 10
14783.92729248996
 20
10804.78095158096
 30
0.0
 11
14792.54911658017
 21
10789.32547802089
 31
0.0
  0
LINE
  5
2C41
  8
0
  6
CONTINUOUS
 10
15473.10374199796
 20
10774.266504002861
 30
0.0
 11
15482.400774596201
 21
10789.32547802089
 31
0.0
  0
LINE
  5
2C42
  8
0
  6
CONTINUOUS
 10
16887.47494558819
 20
10789.32547802089
 30
0.0
 11
16887.47494558819
 21
10774.266504002861
 31
0.0
  0
LINE
  5
2C43
  8
0
  6
CONTINUOUS
 10
13387.474945588179
 20
10774.266504002861
 30
0.0
 11
13387.474945588179
 21
10789.32547802089
 31
0.0
  0
LINE
  5
2C44
  8
0
  6
CONTINUOUS
 10
14792.54911658017
 20
10789.32547802089
 30
0.0
 11
14801.846149178409
 21
10774.266504002861
 31
0.0
  0
LINE
  5
2C45
  8
0
  6
CONTINUOUS
 10
15463.149700269611
 20
10759.633508175661
 30
0.0
 11
15473.10374199796
 21
10774.266504002861
 31
0.0
  0
LINE
  5
2C46
  8
0
  6
CONTINUOUS
 10
16887.47494558819
 20
10774.266504002861
 30
0.0
 11
16887.47494558819
 21
10759.633508175661
 31
0.0
  0
LINE
  5
2C47
  8
0
  6
CONTINUOUS
 10
13387.474945588179
 20
10759.633508175661
 30
0.0
 11
13387.474945588179
 21
10774.266504002861
 31
0.0
  0
LINE
  5
2C48
  8
0
  6
CONTINUOUS
 10
14801.846149178409
 20
10774.266504002861
 30
0.0
 11
14811.800190906761
 21
10759.633508175661
 31
0.0
  0
LINE
  5
2C49
  8
0
  6
CONTINUOUS
 10
15452.558134915271
 20
10745.455135315809
 30
0.0
 11
15463.149700269611
 21
10759.633508175661
 31
0.0
  0
LINE
  5
2C4A
  8
0
  6
CONTINUOUS
 10
16887.47494558819
 20
10759.633508175661
 30
0.0
 11
16887.47494558819
 21
10745.455135315809
 31
0.0
  0
LINE
  5
2C4B
  8
0
  6
CONTINUOUS
 10
13387.474945588179
 20
10745.455135315809
 30
0.0
 11
13387.474945588179
 21
10759.633508175661
 31
0.0
  0
LINE
  5
2C4C
  8
0
  6
CONTINUOUS
 10
14811.800190906761
 20
10759.633508175661
 30
0.0
 11
14822.3917562611
 21
10745.455135315809
 31
0.0
  0
LINE
  5
2C4D
  8
0
  6
CONTINUOUS
 10
15449.6279934914
 20
10741.874663363949
 30
0.0
 11
15452.558134915271
 21
10745.455135315809
 31
0.0
  0
LINE
  5
2C4E
  8
0
  6
CONTINUOUS
 10
16887.47494558819
 20
10745.455135315809
 30
0.0
 11
16887.47494558819
 21
10741.874663363949
 31
0.0
  0
LINE
  5
2C4F
  8
0
  6
CONTINUOUS
 10
13387.474945588179
 20
10741.874663363949
 30
0.0
 11
13387.474945588179
 21
10745.455135315809
 31
0.0
  0
LINE
  5
2C50
  8
0
  6
CONTINUOUS
 10
14822.3917562611
 20
10745.455135315809
 30
0.0
 11
14825.321897684969
 21
10741.874663363949
 31
0.0
  0
LINE
  5
2C51
  8
0
  6
CONTINUOUS
 10
15441.3497794215
 20
10731.75914025398
 30
0.0
 11
15449.6279934914
 21
10741.874663363949
 31
0.0
  0
LINE
  5
2C52
  8
0
  6
CONTINUOUS
 10
15887.474945588179
 20
10741.874663363949
 30
0.0
 11
15852.434773535229
 21
10731.75914025398
 31
0.0
  0
LINE
  5
2C53
  8
0
  6
CONTINUOUS
 10
14422.51511764114
 20
10731.75914025398
 30
0.0
 11
14387.47494558819
 21
10741.874663363949
 31
0.0
  0
LINE
  5
2C54
  8
0
  6
CONTINUOUS
 10
14825.321897684969
 20
10741.874663363949
 30
0.0
 11
14833.600111754869
 21
10731.75914025398
 31
0.0
  0
LINE
  5
2C55
  8
0
  6
CONTINUOUS
 10
15429.546574670519
 20
10718.572333543671
 30
0.0
 11
15441.3497794215
 21
10731.75914025398
 31
0.0
  0
LINE
  5
2C56
  8
0
  6
CONTINUOUS
 10
15852.434773535229
 20
10731.75914025398
 30
0.0
 11
15806.75567509075
 21
10718.572333543671
 31
0.0
  0
LINE
  5
2C57
  8
0
  6
CONTINUOUS
 10
14468.19421608562
 20
10718.572333543671
 30
0.0
 11
14422.51511764114
 21
10731.75914025398
 31
0.0
  0
LINE
  5
2C58
  8
0
  6
CONTINUOUS
 10
14833.600111754869
 20
10731.75914025398
 30
0.0
 11
14845.40331650585
 21
10718.572333543671
 31
0.0
  0
LINE
  5
2C59
  8
0
  6
CONTINUOUS
 10
15427.88605413038
 20
10716.874663363949
 30
0.0
 11
15429.546574670519
 21
10718.572333543671
 31
0.0
  0
LINE
  5
2C5A
  8
0
  6
CONTINUOUS
 10
15806.75567509075
 20
10718.572333543671
 30
0.0
 11
15800.87494558819
 21
10716.874663363949
 31
0.0
  0
LINE
  5
2C5B
  8
0
  6
CONTINUOUS
 10
14474.07494558818
 20
10716.874663363949
 30
0.0
 11
14468.19421608562
 21
10718.572333543671
 31
0.0
  0
LINE
  5
2C5C
  8
0
  6
CONTINUOUS
 10
14845.40331650585
 20
10718.572333543671
 30
0.0
 11
14847.063837045989
 21
10716.874663363949
 31
0.0
  0
LINE
  5
2C5D
  8
0
  6
CONTINUOUS
 10
15417.171625989909
 20
10705.92052897828
 30
0.0
 11
15427.88605413038
 21
10716.874663363949
 31
0.0
  0
LINE
  5
2C5E
  8
0
  6
CONTINUOUS
 10
15800.87494558819
 20
10716.874663363949
 30
0.0
 11
15800.87494558819
 21
10705.92052897828
 31
0.0
  0
LINE
  5
2C5F
  8
0
  6
CONTINUOUS
 10
14474.07494558818
 20
10705.92052897828
 30
0.0
 11
14474.07494558818
 21
10716.874663363949
 31
0.0
  0
LINE
  5
2C60
  8
0
  6
CONTINUOUS
 10
14847.063837045989
 20
10716.874663363949
 30
0.0
 11
14857.77826518646
 21
10705.92052897828
 31
0.0
  0
LINE
  5
2C61
  8
0
  6
CONTINUOUS
 10
15404.249157922841
 20
10693.82849305938
 30
0.0
 11
15417.171625989909
 21
10705.92052897828
 31
0.0
  0
LINE
  5
2C62
  8
0
  6
CONTINUOUS
 10
15800.87494558819
 20
10705.92052897828
 30
0.0
 11
15800.87494558819
 21
10693.82849305938
 31
0.0
  0
LINE
  5
2C63
  8
0
  6
CONTINUOUS
 10
14474.07494558818
 20
10693.82849305938
 30
0.0
 11
14474.07494558818
 21
10705.92052897828
 31
0.0
  0
LINE
  5
2C64
  8
0
  6
CONTINUOUS
 10
14857.77826518646
 20
10705.92052897828
 30
0.0
 11
14870.70073325353
 21
10693.82849305938
 31
0.0
  0
LINE
  5
2C65
  8
0
  6
CONTINUOUS
 10
15390.8044668074
 20
10682.31989651511
 30
0.0
 11
15404.249157922841
 21
10693.82849305938
 31
0.0
  0
LINE
  5
2C66
  8
0
  6
CONTINUOUS
 10
15800.87494558819
 20
10693.82849305938
 30
0.0
 11
15800.87494558819
 21
10682.31989651511
 31
0.0
  0
LINE
  5
2C67
  8
0
  6
CONTINUOUS
 10
14474.07494558818
 20
10682.31989651511
 30
0.0
 11
14474.07494558818
 21
10693.82849305938
 31
0.0
  0
LINE
  5
2C68
  8
0
  6
CONTINUOUS
 10
14870.70073325353
 20
10693.82849305938
 30
0.0
 11
14884.14542436897
 21
10682.31989651511
 31
0.0
  0
LINE
  5
2C69
  8
0
  6
CONTINUOUS
 10
15376.86387125781
 20
10671.41726796365
 30
0.0
 11
15390.8044668074
 21
10682.31989651511
 31
0.0
  0
LINE
  5
2C6A
  8
0
  6
CONTINUOUS
 10
15800.87494558819
 20
10682.31989651511
 30
0.0
 11
15800.87494558819
 21
10671.41726796365
 31
0.0
  0
LINE
  5
2C6B
  8
0
  6
CONTINUOUS
 10
14474.07494558818
 20
10671.41726796365
 30
0.0
 11
14474.07494558818
 21
10682.31989651511
 31
0.0
  0
LINE
  5
2C6C
  8
0
  6
CONTINUOUS
 10
14884.14542436897
 20
10682.31989651511
 30
0.0
 11
14898.086019918561
 21
10671.41726796365
 31
0.0
  0
LINE
  5
2C6D
  8
0
  6
CONTINUOUS
 10
15370.493718485261
 20
10666.874663363949
 30
0.0
 11
15376.86387125781
 21
10671.41726796365
 31
0.0
  0
LINE
  5
2C6E
  8
0
  6
CONTINUOUS
 10
15800.87494558819
 20
10671.41726796365
 30
0.0
 11
15800.87494558819
 21
10666.874663363949
 31
0.0
  0
LINE
  5
2C6F
  8
0
  6
CONTINUOUS
 10
14474.07494558818
 20
10666.874663363949
 30
0.0
 11
14474.07494558818
 21
10671.41726796365
 31
0.0
  0
LINE
  5
2C70
  8
0
  6
CONTINUOUS
 10
14898.086019918561
 20
10671.41726796365
 30
0.0
 11
14904.456172691111
 21
10666.874663363949
 31
0.0
  0
LINE
  5
2C71
  8
0
  6
CONTINUOUS
 10
15362.4546606445
 20
10661.141949812391
 30
0.0
 11
15370.493718485261
 21
10666.874663363949
 31
0.0
  0
LINE
  5
2C72
  8
0
  6
CONTINUOUS
 10
15800.87494558819
 20
10666.874663363949
 30
0.0
 11
15820.7330653308
 21
10661.141949812391
 31
0.0
  0
LINE
  5
2C73
  8
0
  6
CONTINUOUS
 10
14454.216825845569
 20
10661.141949812391
 30
0.0
 11
14474.07494558818
 21
10666.874663363949
 31
0.0
  0
LINE
  5
2C74
  8
0
  6
CONTINUOUS
 10
14904.456172691111
 20
10666.874663363949
 30
0.0
 11
14912.495230531869
 21
10661.141949812391
 31
0.0
  0
LINE
  5
2C75
  8
0
  6
CONTINUOUS
 10
15347.6050416739
 20
10651.514056479131
 30
0.0
 11
15362.4546606445
 21
10661.141949812391
 31
0.0
  0
LINE
  5
2C76
  8
0
  6
CONTINUOUS
 10
15820.7330653308
 20
10661.141949812391
 30
0.0
 11
15854.084087837209
 21
10651.514056479131
 31
0.0
  0
LINE
  5
2C77
  8
0
  6
CONTINUOUS
 10
14420.865803339149
 20
10651.514056479131
 30
0.0
 11
14454.216825845569
 21
10661.141949812391
 31
0.0
  0
LINE
  5
2C78
  8
0
  6
CONTINUOUS
 10
14912.495230531869
 20
10661.141949812391
 30
0.0
 11
14927.34484950247
 21
10651.514056479131
 31
0.0
  0
LINE
  5
2C79
  8
0
  6
CONTINUOUS
 10
15887.474945588179
 20
10642.552435017191
 30
0.0
 11
15887.474945588179
 21
10741.874663363949
 31
0.0
  0
LINE
  5
2C7A
  8
0
  6
CONTINUOUS
 10
16887.47494558819
 20
10741.874663363949
 30
0.0
 11
16887.47494558819
 21
10642.552435017191
 31
0.0
  0
LINE
  5
2C7B
  8
0
  6
CONTINUOUS
 10
15332.3440831725
 20
10642.552435017191
 30
0.0
 11
15347.6050416739
 21
10651.514056479131
 31
0.0
  0
LINE
  5
2C7C
  8
0
  6
CONTINUOUS
 10
15854.084087837209
 20
10651.514056479131
 30
0.0
 11
15885.127144581351
 21
10642.552435017191
 31
0.0
  0
LINE
  5
2C7D
  8
0
  6
CONTINUOUS
 10
14389.82274659502
 20
10642.552435017191
 30
0.0
 11
14420.865803339149
 21
10651.514056479131
 31
0.0
  0
LINE
  5
2C7E
  8
0
  6
CONTINUOUS
 10
14927.34484950247
 20
10651.514056479131
 30
0.0
 11
14942.605808003869
 21
10642.552435017191
 31
0.0
  0
LINE
  5
2C7F
  8
0
  6
CONTINUOUS
 10
16887.47494558819
 20
10642.552435017191
 30
0.0
 11
16887.47494558819
 21
10641.874663363949
 31
0.0
  0
LINE
  5
2C80
  8
0
  6
CONTINUOUS
 10
15331.063310157429
 20
10641.874663363949
 30
0.0
 11
15332.3440831725
 21
10642.552435017191
 31
0.0
  0
LINE
  5
2C81
  8
0
  6
CONTINUOUS
 10
14387.47494558819
 20
10641.874663363949
 30
0.0
 11
14389.82274659502
 21
10642.552435017191
 31
0.0
  0
LINE
  5
2C82
  8
0
  6
CONTINUOUS
 10
14942.605808003869
 20
10642.552435017191
 30
0.0
 11
14943.886581018931
 21
10641.874663363949
 31
0.0
  0
LINE
  5
2C83
  8
0
  6
CONTINUOUS
 10
13387.474945588179
 20
10641.874663363949
 30
0.0
 11
13387.474945588179
 21
10741.874663363949
 31
0.0
  0
LINE
  5
2C84
  8
0
  6
CONTINUOUS
 10
14387.47494558819
 20
10741.874663363949
 30
0.0
 11
14387.47494558819
 21
10641.874663363949
 31
0.0
  0
LINE
  5
2C85
  8
0
  6
CONTINUOUS
 10
15316.70165918322
 20
10634.274628221439
 30
0.0
 11
15331.063310157429
 21
10641.874663363949
 31
0.0
  0
LINE
  5
2C86
  8
0
  6
CONTINUOUS
 10
16887.47494558819
 20
10641.874663363949
 30
0.0
 11
16887.47494558819
 21
10634.274628221439
 31
0.0
  0
LINE
  5
2C87
  8
0
  6
CONTINUOUS
 10
13387.474945588179
 20
10634.274628221439
 30
0.0
 11
13387.474945588179
 21
10641.874663363949
 31
0.0
  0
LINE
  5
2C88
  8
0
  6
CONTINUOUS
 10
14943.886581018931
 20
10641.874663363949
 30
0.0
 11
14958.24823199315
 21
10634.274628221439
 31
0.0
  0
LINE
  5
2C89
  8
0
  6
CONTINUOUS
 10
15300.70839048557
 20
10626.69684028739
 30
0.0
 11
15316.70165918322
 21
10634.274628221439
 31
0.0
  0
LINE
  5
2C8A
  8
0
  6
CONTINUOUS
 10
16887.47494558819
 20
10634.274628221439
 30
0.0
 11
16887.47494558819
 21
10626.69684028739
 31
0.0
  0
LINE
  5
2C8B
  8
0
  6
CONTINUOUS
 10
13387.474945588179
 20
10626.69684028739
 30
0.0
 11
13387.474945588179
 21
10634.274628221439
 31
0.0
  0
LINE
  5
2C8C
  8
0
  6
CONTINUOUS
 10
14958.24823199315
 20
10634.274628221439
 30
0.0
 11
14974.2415006908
 21
10626.69684028739
 31
0.0
  0
LINE
  5
2C8D
  8
0
  6
CONTINUOUS
 10
15284.39558465409
 20
10619.833905090791
 30
0.0
 11
15300.70839048557
 21
10626.69684028739
 31
0.0
  0
LINE
  5
2C8E
  8
0
  6
CONTINUOUS
 10
16887.47494558819
 20
10626.69684028739
 30
0.0
 11
16887.47494558819
 21
10619.833905090791
 31
0.0
  0
LINE
  5
2C8F
  8
0
  6
CONTINUOUS
 10
13387.474945588179
 20
10619.833905090791
 30
0.0
 11
13387.474945588179
 21
10626.69684028739
 31
0.0
  0
LINE
  5
2C90
  8
0
  6
CONTINUOUS
 10
14974.2415006908
 20
10626.69684028739
 30
0.0
 11
14990.554306522279
 21
10619.833905090791
 31
0.0
  0
LINE
  5
2C91
  8
0
  6
CONTINUOUS
 10
15267.795174772231
 20
10613.699257149559
 30
0.0
 11
15284.39558465409
 21
10619.833905090791
 31
0.0
  0
LINE
  5
2C92
  8
0
  6
CONTINUOUS
 10
16887.47494558819
 20
10619.833905090791
 30
0.0
 11
16887.47494558819
 21
10613.699257149559
 31
0.0
  0
LINE
  5
2C93
  8
0
  6
CONTINUOUS
 10
13387.474945588179
 20
10613.699257149559
 30
0.0
 11
13387.474945588179
 21
10619.833905090791
 31
0.0
  0
LINE
  5
2C94
  8
0
  6
CONTINUOUS
 10
14990.554306522279
 20
10619.833905090791
 30
0.0
 11
15007.15471640414
 21
10613.699257149559
 31
0.0
  0
LINE
  5
2C95
  8
0
  6
CONTINUOUS
 10
15250.939656921901
 20
10608.30490532514
 30
0.0
 11
15267.795174772231
 21
10613.699257149559
 31
0.0
  0
LINE
  5
2C96
  8
0
  6
CONTINUOUS
 10
16887.47494558819
 20
10613.699257149559
 30
0.0
 11
16887.47494558819
 21
10608.30490532514
 31
0.0
  0
LINE
  5
2C97
  8
0
  6
CONTINUOUS
 10
13387.474945588179
 20
10608.30490532514
 30
0.0
 11
13387.474945588179
 21
10613.699257149559
 31
0.0
  0
LINE
  5
2C98
  8
0
  6
CONTINUOUS
 10
15007.15471640414
 20
10613.699257149559
 30
0.0
 11
15024.010234254471
 21
10608.30490532514
 31
0.0
  0
LINE
  5
2C99
  8
0
  6
CONTINUOUS
 10
15233.86202657083
 20
10603.66140931452
 30
0.0
 11
15250.939656921901
 21
10608.30490532514
 31
0.0
  0
LINE
  5
2C9A
  8
0
  6
CONTINUOUS
 10
16887.47494558819
 20
10608.30490532514
 30
0.0
 11
16887.47494558819
 21
10603.66140931452
 31
0.0
  0
LINE
  5
2C9B
  8
0
  6
CONTINUOUS
 10
13387.474945588179
 20
10603.66140931452
 30
0.0
 11
13387.474945588179
 21
10608.30490532514
 31
0.0
  0
LINE
  5
2C9C
  8
0
  6
CONTINUOUS
 10
15024.010234254471
 20
10608.30490532514
 30
0.0
 11
15041.08786460555
 21
10603.66140931452
 31
0.0
  0
LINE
  5
2C9D
  8
0
  6
CONTINUOUS
 10
15216.595713982389
 20
10599.777858979231
 30
0.0
 11
15233.86202657083
 21
10603.66140931452
 31
0.0
  0
LINE
  5
2C9E
  8
0
  6
CONTINUOUS
 10
16887.47494558819
 20
10603.66140931452
 30
0.0
 11
16887.47494558819
 21
10599.777858979231
 31
0.0
  0
LINE
  5
2C9F
  8
0
  6
CONTINUOUS
 10
13387.474945588179
 20
10599.777858979231
 30
0.0
 11
13387.474945588179
 21
10603.66140931452
 31
0.0
  0
LINE
  5
2CA0
  8
0
  6
CONTINUOUS
 10
15041.08786460555
 20
10603.66140931452
 30
0.0
 11
15058.35417719398
 21
10599.777858979231
 31
0.0
  0
LINE
  5
2CA1
  8
0
  6
CONTINUOUS
 10
15199.1745187743
 20
10596.661856551411
 30
0.0
 11
15216.595713982389
 21
10599.777858979231
 31
0.0
  0
LINE
  5
2CA2
  8
0
  6
CONTINUOUS
 10
16887.47494558819
 20
10599.777858979231
 30
0.0
 11
16887.47494558819
 21
10596.661856551411
 31
0.0
  0
LINE
  5
2CA3
  8
0
  6
CONTINUOUS
 10
13387.474945588179
 20
10596.661856551411
 30
0.0
 11
13387.474945588179
 21
10599.777858979231
 31
0.0
  0
LINE
  5
2CA4
  8
0
  6
CONTINUOUS
 10
15058.35417719398
 20
10599.777858979231
 30
0.0
 11
15075.77537240206
 21
10596.661856551411
 31
0.0
  0
LINE
  5
2CA5
  8
0
  6
CONTINUOUS
 10
15181.632543754289
 20
10594.31950175213
 30
0.0
 11
15199.1745187743
 21
10596.661856551411
 31
0.0
  0
LINE
  5
2CA6
  8
0
  6
CONTINUOUS
 10
16887.47494558819
 20
10596.661856551411
 30
0.0
 11
16887.47494558819
 21
10594.31950175213
 31
0.0
  0
LINE
  5
2CA7
  8
0
  6
CONTINUOUS
 10
13387.474945588179
 20
10594.31950175213
 30
0.0
 11
13387.474945588179
 21
10596.661856551411
 31
0.0
  0
LINE
  5
2CA8
  8
0
  6
CONTINUOUS
 10
15075.77537240206
 20
10596.661856551411
 30
0.0
 11
15093.317347422089
 21
10594.31950175213
 31
0.0
  0
LINE
  5
2CA9
  8
0
  6
CONTINUOUS
 10
15164.004128162231
 20
10592.75537985092
 30
0.0
 11
15181.632543754289
 21
10594.31950175213
 31
0.0
  0
LINE
  5
2CAA
  8
0
  6
CONTINUOUS
 10
16887.47494558819
 20
10594.31950175213
 30
0.0
 11
16887.47494558819
 21
10592.75537985092
 31
0.0
  0
LINE
  5
2CAB
  8
0
  6
CONTINUOUS
 10
13387.474945588179
 20
10592.75537985092
 30
0.0
 11
13387.474945588179
 21
10594.31950175213
 31
0.0
  0
LINE
  5
2CAC
  8
0
  6
CONTINUOUS
 10
15093.3173474221
 20
10594.31950175213
 30
0.0
 11
15110.945763014141
 21
10592.75537985092
 31
0.0
  0
LINE
  5
2CAD
  8
0
  6
CONTINUOUS
 10
15146.32378044946
 20
10591.972552689849
 30
0.0
 11
15164.004128162231
 21
10592.75537985092
 31
0.0
  0
LINE
  5
2CAE
  8
0
  6
CONTINUOUS
 10
16887.47494558819
 20
10592.75537985092
 30
0.0
 11
16887.47494558819
 21
10591.972552689849
 31
0.0
  0
LINE
  5
2CAF
  8
0
  6
CONTINUOUS
 10
13387.474945588179
 20
10591.972552689849
 30
0.0
 11
13387.474945588179
 21
10592.75537985092
 31
0.0
  0
LINE
  5
2CB0
  8
0
  6
CONTINUOUS
 10
15110.945763014141
 20
10592.75537985092
 30
0.0
 11
15128.626110726909
 21
10591.972552689849
 31
0.0
  0
LINE
  5
2CB1
  8
0
  6
CONTINUOUS
 10
13387.474945588179
 20
10541.874663363949
 30
0.0
 11
13387.474945588179
 21
10591.972552689849
 31
0.0
  0
LINE
  5
2CB2
  8
0
  6
CONTINUOUS
 10
16887.47494558819
 20
10591.972552689849
 30
0.0
 11
16887.47494558819
 21
10541.874663363949
 31
0.0
  0
LINE
  5
2CB3
  8
0
  6
CONTINUOUS
 10
14474.07494558818
 20
10516.874663363949
 30
0.0
 11
14387.47494558819
 21
10541.874663363949
 31
0.0
  0
LINE
  5
2CB4
  8
0
  6
CONTINUOUS
 10
15887.474945588179
 20
10541.874663363949
 30
0.0
 11
15800.87494558819
 21
10516.874663363949
 31
0.0
  0
LINE
  5
2CB5
  8
0
  6
CONTINUOUS
 10
15887.474945588179
 20
10466.874663363949
 30
0.0
 11
15887.474945588179
 21
10541.874663363949
 31
0.0
  0
LINE
  5
2CB6
  8
0
  6
CONTINUOUS
 10
16887.47494558819
 20
10541.874663363949
 30
0.0
 11
16887.47494558819
 21
10466.874663363949
 31
0.0
  0
LINE
  5
2CB7
  8
0
  6
CONTINUOUS
 10
14474.07494558818
 20
10466.874663363949
 30
0.0
 11
14474.07494558818
 21
10516.874663363949
 31
0.0
  0
LINE
  5
2CB8
  8
0
  6
CONTINUOUS
 10
15800.87494558819
 20
10516.874663363949
 30
0.0
 11
15800.87494558819
 21
10466.874663363949
 31
0.0
  0
LINE
  5
2CB9
  8
0
  6
CONTINUOUS
 10
16887.47494558819
 20
10466.874663363949
 30
0.0
 11
16887.47494558819
 21
10441.874663363949
 31
0.0
  0
LINE
  5
2CBA
  8
0
  6
CONTINUOUS
 10
14387.47494558819
 20
10441.874663363949
 30
0.0
 11
14474.07494558818
 21
10466.874663363949
 31
0.0
  0
LINE
  5
2CBB
  8
0
  6
CONTINUOUS
 10
13387.474945588179
 20
10441.874663363949
 30
0.0
 11
13387.474945588179
 21
10541.874663363949
 31
0.0
  0
LINE
  5
2CBC
  8
0
  6
CONTINUOUS
 10
14387.47494558819
 20
10541.874663363949
 30
0.0
 11
14387.47494558819
 21
10441.874663363949
 31
0.0
  0
LINE
  5
2CBD
  8
0
  6
CONTINUOUS
 10
13387.474945588179
 20
10341.874663363949
 30
0.0
 11
13387.474945588179
 21
10441.874663363949
 31
0.0
  0
LINE
  5
2CBE
  8
0
  6
CONTINUOUS
 10
16887.47494558819
 20
10441.874663363949
 30
0.0
 11
16887.47494558819
 21
10341.874663363949
 31
0.0
  0
LINE
  5
2CBF
  8
0
  6
CONTINUOUS
 10
14474.07494558818
 20
10316.874663363949
 30
0.0
 11
14387.47494558819
 21
10341.874663363949
 31
0.0
  0
LINE
  5
2CC0
  8
0
  6
CONTINUOUS
 10
15887.474945588179
 20
10341.874663363949
 30
0.0
 11
15800.87494558819
 21
10316.874663363949
 31
0.0
  0
LINE
  5
2CC1
  8
0
  6
CONTINUOUS
 10
15887.474945588179
 20
10266.874663363949
 30
0.0
 11
15887.474945588179
 21
10341.874663363949
 31
0.0
  0
LINE
  5
2CC2
  8
0
  6
CONTINUOUS
 10
16887.47494558819
 20
10341.874663363949
 30
0.0
 11
16887.47494558819
 21
10266.874663363949
 31
0.0
  0
LINE
  5
2CC3
  8
0
  6
CONTINUOUS
 10
14474.07494558818
 20
10266.874663363949
 30
0.0
 11
14474.07494558818
 21
10316.874663363949
 31
0.0
  0
LINE
  5
2CC4
  8
0
  6
CONTINUOUS
 10
15800.87494558819
 20
10316.874663363949
 30
0.0
 11
15800.87494558819
 21
10266.874663363949
 31
0.0
  0
LINE
  5
2CC5
  8
0
  6
CONTINUOUS
 10
16887.47494558819
 20
10266.874663363949
 30
0.0
 11
16887.47494558819
 21
10241.874663363949
 31
0.0
  0
LINE
  5
2CC6
  8
0
  6
CONTINUOUS
 10
14387.47494558819
 20
10241.874663363949
 30
0.0
 11
14474.07494558818
 21
10266.874663363949
 31
0.0
  0
LINE
  5
2CC7
  8
0
  6
CONTINUOUS
 10
13387.474945588179
 20
10241.874663363949
 30
0.0
 11
13387.474945588179
 21
10341.874663363949
 31
0.0
  0
LINE
  5
2CC8
  8
0
  6
CONTINUOUS
 10
14387.47494558819
 20
10341.874663363949
 30
0.0
 11
14387.47494558819
 21
10241.874663363949
 31
0.0
  0
LINE
  5
2CC9
  8
0
  6
CONTINUOUS
 10
13387.474945588179
 20
10141.874663363949
 30
0.0
 11
13387.474945588179
 21
10241.874663363949
 31
0.0
  0
LINE
  5
2CCA
  8
0
  6
CONTINUOUS
 10
16887.47494558819
 20
10241.874663363949
 30
0.0
 11
16887.47494558819
 21
10141.874663363949
 31
0.0
  0
LINE
  5
2CCB
  8
0
  6
CONTINUOUS
 10
15887.474945588179
 20
10141.874663363949
 30
0.0
 11
15800.87494558819
 21
10116.874663363949
 31
0.0
  0
LINE
  5
2CCC
  8
0
  6
CONTINUOUS
 10
13387.474945588179
 20
10116.874663363949
 30
0.0
 11
13387.474945588179
 21
10141.874663363949
 31
0.0
  0
LINE
  5
2CCD
  8
0
  6
CONTINUOUS
 10
15887.474945588179
 20
9141.874663363953
 30
0.0
 11
15887.474945588179
 21
10141.874663363949
 31
0.0
  0
LINE
  5
2CCE
  8
0
  6
CONTINUOUS
 10
16887.47494558819
 20
10141.874663363949
 30
0.0
 11
16887.47494558819
 21
9141.874663363953
 31
0.0
  0
LINE
  5
2CCF
  8
0
  6
CONTINUOUS
 10
13387.474945588179
 20
9141.874663363953
 30
0.0
 11
13387.474945588179
 21
10116.874663363949
 31
0.0
  0
LINE
  5
2CD0
  8
0
  6
CONTINUOUS
 10
14387.47494558819
 20
10116.874663363949
 30
0.0
 11
14387.47494558819
 21
9141.874663363953
 31
0.0
  0
LINE
  5
2CD1
  8
0
  6
CONTINUOUS
 10
14474.07494558818
 20
7308.5536732846376
 30
0.0
 11
14474.07494558818
 21
10116.874663363949
 31
0.0
  0
LINE
  5
2CD2
  8
0
  6
CONTINUOUS
 10
15800.87494558819
 20
10116.874663363949
 30
0.0
 11
15800.87494558819
 21
7308.5536732846376
 31
0.0
  0
LINE
  5
2CD3
  8
0
  6
CONTINUOUS
 10
22251.435976267101
 20
2777.9136326850139
 30
0.0
 11
15887.474945588179
 21
9141.874663363953
 31
0.0
  0
LINE
  5
2CD4
  8
0
  6
CONTINUOUS
 10
16887.47494558819
 20
9141.874663363953
 30
0.0
 11
23251.435976267101
 21
2777.9136326850139
 31
0.0
  0
LINE
  5
2CD5
  8
0
  6
CONTINUOUS
 10
7023.5139149092583
 20
2777.9136326850139
 30
0.0
 11
13387.474945588179
 21
9141.874663363953
 31
0.0
  0
LINE
  5
2CD6
  8
0
  6
CONTINUOUS
 10
14387.47494558819
 20
9141.874663363953
 30
0.0
 11
8023.5139149092574
 21
2777.9136326850139
 31
0.0
  0
ENDBLK
  5
2CD8
  8
0
  0
ENDSEC
  0
SECTION
  2
ENTITIES
  0
INSERT
  5
78B
  8
0
  6
CONTINUOUS
  2
*U2
 10
0.0
 20
0.0
 30
0.0
1001
GRADIENTCOLOR1ACI
1070
     5
1001
GRADIENTCOLOR2ACI
1070
     2
1001
ACAD
1002
{
1000
R14_HATCH_DATA
1000
78B
1011
1.0
1021
0.0
1031
0.0
1021
0.0
1031
0.0
1011
0.0
1021
0.0
1031
0.0
1021
1.0
1031
0.0
1011
0.0
1021
0.0
1031
0.0
1021
0.0
1031
1.0
1040
0.0
1010
0.0
1020
0.0
1030
1.0
1000
SOLID
1070
     1
1070
     0
1071
       18
1071
        7
1070
     0
1070
     1
1071
       28
1040
8023.5139149092638
1040
19205.835694042878
1040
7023.5139149092647
1040
19205.835694042878
1040
13387.474945588179
1040
12841.874663363949
1040
13387.474945588179
1040
9141.874663363953
1040
7023.5139149092647
1040
2777.9136326850212
1040
8023.5139149092638
1040
2777.9136326850212
1040
14387.47494558819
1040
9141.874663363953
1040
14387.47494558819
1040
10141.874663363949
1040
14474.07494558818
1040
10116.874663363949
1040
14474.07494558818
1040
7308.5536732846376
1040
15800.87494558819
1040
7308.5536732846376
1040
15800.87494558819
1040
10116.874663363949
1040
15887.474945588179
1040
10141.874663363949
1040
15887.474945588179
1040
9141.874663363953
1040
22251.435976267101
1040
2777.9136326850139
1040
23251.435976267101
1040
2777.9136326850139
1040
16887.47494558819
1040
9141.874663363953
1040
16887.47494558819
1040
12841.874663363949
1040
23251.435976267101
1040
19205.835694042878
1040
22251.435976267101
1040
19205.835694042878
1040
15887.474945588179
1040
12841.874663363949
1040
15887.474945588179
1040
11841.874663363949
1040
15800.87494558819
1040
11866.874663363949
1040
15800.87494558819
1040
14675.195653443259
1040
14474.07494558818
1040
14676.874663363949
1040
14474.07494558818
1040
11866.874663363949
1040
14387.47494558819
1040
11841.874663363949
1040
14387.47494558819
1040
12841.874663363949
1071
        0
1071
       22
1070
     0
1070
     1
1071
        4
1040
14387.47494558819
1040
11741.874663363949
1040
14474.07494558818
1040
11716.874663363949
1040
14474.07494558818
1040
11666.874663363949
1040
14387.47494558819
1040
11641.874663363949
1071
        0
1071
       22
1070
     0
1070
     1
1071
        4
1040
14387.47494558819
1040
11541.874663363949
1040
14474.07494558818
1040
11516.874663363949
1040
14474.07494558818
1040
11466.874663363949
1040
14387.47494558819
1040
11441.874663363949
1071
        0
1071
       22
1070
     0
1070
     1
1071
        4
1040
14387.47494558819
1040
11341.874663363949
1040
14474.07494558818
1040
11316.874663363949
1040
14474.07494558818
1040
11266.874663363949
1040
14387.47494558819
1040
11241.874663363949
1071
        0
1071
       22
1070
     0
1070
     1
1071
        4
1040
14387.47494558819
1040
11141.874663363949
1040
14474.07494558818
1040
11116.874663363949
1040
14474.07494558818
1040
11066.874663363949
1040
14387.47494558819
1040
11041.874663363949
1071
        0
1071
       22
1070
     1
1070
     1
1071
        2
1040
15537.47494558819
1040
10991.874663363949
1040
-1.0
1040
14737.474945588179
1040
10991.874663363949
1040
-1.0
1071
        0
1071
       22
1070
     0
1070
     1
1071
        4
1040
14387.47494558819
1040
10941.874663363949
1040
14474.07494558818
1040
10916.874663363949
1040
14474.07494558818
1040
10866.874663363949
1040
14387.47494558819
1040
10841.874663363949
1071
        0
1071
       22
1070
     0
1070
     1
1071
        4
1040
14387.47494558819
1040
10741.874663363949
1040
14474.07494558818
1040
10716.874663363949
1040
14474.07494558818
1040
10666.874663363949
1040
14387.47494558819
1040
10641.874663363949
1071
        0
1071
       22
1070
     0
1070
     1
1071
        4
1040
15800.87494558819
1040
11716.874663363949
1040
15887.474945588179
1040
11741.874663363949
1040
15887.474945588179
1040
11641.874663363949
1040
15800.87494558819
1040
11666.874663363949
1071
        0
1071
       22
1070
     0
1070
     1
1071
        4
1040
14387.47494558819
1040
10541.874663363949
1040
14474.07494558818
1040
10516.874663363949
1040
14474.07494558818
1040
10466.874663363949
1040
14387.47494558819
1040
10441.874663363949
1071
        0
1071
       22
1070
     0
1070
     1
1071
        4
1040
15800.87494558819
1040
11516.874663363949
1040
15887.474945588179
1040
11541.874663363949
1040
15887.474945588179
1040
11441.874663363949
1040
15800.87494558819
1040
11466.874663363949
1071
        0
1071
       22
1070
     0
1070
     1
1071
        4
1040
14387.47494558819
1040
10341.874663363949
1040
14474.07494558818
1040
10316.874663363949
1040
14474.07494558818
1040
10266.874663363949
1040
14387.47494558819
1040
10241.874663363949
1071
        0
1071
       22
1070
     0
1070
     1
1071
        4
1040
15800.87494558819
1040
11316.874663363949
1040
15887.474945588179
1040
11341.874663363949
1040
15887.474945588179
1040
11241.874663363949
1040
15800.87494558819
1040
11266.874663363949
1071
        0
1071
       22
1070
     0
1070
     1
1071
        4
1040
15800.87494558819
1040
11116.874663363949
1040
15887.474945588179
1040
11141.874663363949
1040
15887.474945588179
1040
11041.874663363949
1040
15800.87494558819
1040
11066.874663363949
1071
        0
1071
       22
1070
     0
1070
     1
1071
        4
1040
15800.87494558819
1040
10916.874663363949
1040
15887.474945588179
1040
10941.874663363949
1040
15887.474945588179
1040
10841.874663363949
1040
15800.87494558819
1040
10866.874663363949
1071
        0
1071
       22
1070
     0
1070
     1
1071
        4
1040
15800.87494558819
1040
10716.874663363949
1040
15887.474945588179
1040
10741.874663363949
1040
15887.474945588179
1040
10641.874663363949
1040
15800.87494558819
1040
10666.874663363949
1071
        0
1071
       22
1070
     0
1070
     1
1071
        4
1040
15800.87494558819
1040
10516.874663363949
1040
15887.474945588179
1040
10541.874663363949
1040
15887.474945588179
1040
10441.874663363949
1040
15800.87494558819
1040
10466.874663363949
1071
        0
1071
       22
1070
     0
1070
     1
1071
        4
1040
15800.87494558819
1040
10316.874663363949
1040
15887.474945588179
1040
10341.874663363949
1040
15887.474945588179
1040
10241.874663363949
1040
15800.87494558819
1040
10266.874663363949
1071
        0
1070
     1
1070
     1
1040
14.10275340797528
1071
       18
1040
12606.39704684933
1040
14176.749091981201
1040
0.0
1040
12606.39704684933
1040
14176.749091981201
1040
0.0
1040
12606.39704684933
1040
14176.749091981201
1040
0.0
1040
12606.39704684933
1040
14176.749091981201
1040
0.0
1040
12606.39704684933
1040
14176.749091981201
1040
0.0
1040
12606.39704684933
1040
14176.749091981201
1040
0.0
1040
12606.39704684933
1040
14176.749091981201
1040
0.0
1040
12606.39704684933
1040
14176.749091981201
1040
0.0
1040
12606.39704684933
1040
14176.749091981201
1040
0.0
1040
12606.39704684933
1040
14176.749091981201
1040
0.0
1040
12606.39704684933
1040
14176.749091981201
1040
0.0
1040
12606.39704684933
1040
14176.749091981201
1040
0.0
1040
12606.39704684933
1040
14176.749091981201
1040
0.0
1040
12606.39704684933
1040
14176.749091981201
1040
0.0
1040
12606.39704684933
1040
14176.749091981201
1040
0.0
1040
12606.39704684933
1040
14176.749091981201
1040
0.0
1040
12606.39704684933
1040
14176.749091981201
1040
0.0
1040
12606.39704684933
1040
14176.749091981201
1040
0.0
1002
}
  0
ENDSEC
  0
EOF
